  0
SECTION
  2
HEADER
  9
$ACADVER
  1
AC1012
  9
$DWGCODEPAGE
  3
ansi_1252
  9
$INSBASE
 10
-19.57977241
 20
-16.76764912
 30
0.0
  9
$EXTMIN
 10
-17.07438427
 20
-17.45216729
 30
0.0
  9
$EXTMAX
 10
31.69921853
 20
19.37726098
 30
0.0
  9
$LIMMIN
 10
0.0
 20
0.0
  9
$LIMMAX
 10
12.0
 20
9.0
  9
$ORTHOMODE
 70
     0
  9
$REGENMODE
 70
     1
  9
$FILLMODE
 70
     1
  9
$QTEXTMODE
 70
     0
  9
$MIRRTEXT
 70
     1
  9
$DRAGMODE
 70
     2
  9
$LTSCALE
 40
1.0
  9
$OSMODE
 70
     0
  9
$ATTMODE
 70
     1
  9
$TEXTSIZE
 40
0.28
  9
$TRACEWID
 40
0.05
  9
$TEXTSTYLE
  7
ROMANS
  9
$CLAYER
  8
0
  9
$CELTYPE
  6
BYLAYER
  9
$CECOLOR
 62
   256
  9
$CELTSCALE
 40
1.0
  9
$DELOBJ
 70
     1
  9
$DISPSILH
 70
     0
  9
$DIMSCALE
 40
1.5
  9
$DIMASZ
 40
0.18
  9
$DIMEXO
 40
0.0625
  9
$DIMDLI
 40
0.38
  9
$DIMRND
 40
0.0
  9
$DIMDLE
 40
0.0
  9
$DIMEXE
 40
0.18
  9
$DIMTP
 40
0.0
  9
$DIMTM
 40
0.0
  9
$DIMTXT
 40
0.18
  9
$DIMCEN
 40
0.075
  9
$DIMTSZ
 40
0.0
  9
$DIMTOL
 70
     0
  9
$DIMLIM
 70
     0
  9
$DIMTIH
 70
     1
  9
$DIMTOH
 70
     1
  9
$DIMSE1
 70
     0
  9
$DIMSE2
 70
     0
  9
$DIMTAD
 70
     0
  9
$DIMZIN
 70
     0
  9
$DIMBLK
  1

  9
$DIMASO
 70
     1
  9
$DIMSHO
 70
     1
  9
$DIMPOST
  1

  9
$DIMAPOST
  1

  9
$DIMALT
 70
     0
  9
$DIMALTD
 70
     2
  9
$DIMALTF
 40
25.4
  9
$DIMLFAC
 40
1.0
  9
$DIMTOFL
 70
     0
  9
$DIMTVP
 40
0.0
  9
$DIMTIX
 70
     0
  9
$DIMSOXD
 70
     0
  9
$DIMSAH
 70
     0
  9
$DIMBLK1
  1

  9
$DIMBLK2
  1

  9
$DIMSTYLE
  2
STANDARD
  9
$DIMCLRD
 70
     0
  9
$DIMCLRE
 70
     0
  9
$DIMCLRT
 70
     0
  9
$DIMTFAC
 40
1.0
  9
$DIMGAP
 40
0.09
  9
$DIMJUST
 70
     0
  9
$DIMSD1
 70
     0
  9
$DIMSD2
 70
     0
  9
$DIMTOLJ
 70
     1
  9
$DIMTZIN
 70
     0
  9
$DIMALTZ
 70
     0
  9
$DIMALTTZ
 70
     0
  9
$DIMFIT
 70
     3
  9
$DIMUPT
 70
     0
  9
$DIMUNIT
 70
     2
  9
$DIMDEC
 70
     4
  9
$DIMTDEC
 70
     4
  9
$DIMALTU
 70
     2
  9
$DIMALTTD
 70
     2
  9
$DIMTXSTY
  7
STANDARD
  9
$DIMAUNIT
 70
     0
  9
$LUNITS
 70
     2
  9
$LUPREC
 70
     4
  9
$SKETCHINC
 40
0.1
  9
$FILLETRAD
 40
0.0
  9
$AUNITS
 70
     0
  9
$AUPREC
 70
     0
  9
$MENU
  1
acad
  9
$ELEVATION
 40
0.0
  9
$PELEVATION
 40
0.0
  9
$THICKNESS
 40
0.0
  9
$LIMCHECK
 70
     0
  9
$BLIPMODE
 70
     1
  9
$CHAMFERA
 40
0.0
  9
$CHAMFERB
 40
0.0
  9
$CHAMFERC
 40
0.0
  9
$CHAMFERD
 40
0.0
  9
$SKPOLY
 70
     0
  9
$TDCREATE
 40
2449583.337512037
  9
$TDUPDATE
 40
2451117.392058472
  9
$TDINDWG
 40
0.0579410069
  9
$TDUSRTIMER
 40
0.0579410069
  9
$USRTIMER
 70
     1
  9
$ANGBASE
 50
0.0
  9
$ANGDIR
 70
     0
  9
$PDMODE
 70
     0
  9
$PDSIZE
 40
0.0
  9
$PLINEWID
 40
0.0
  9
$COORDS
 70
     2
  9
$SPLFRAME
 70
     0
  9
$SPLINETYPE
 70
     6
  9
$SPLINESEGS
 70
     8
  9
$ATTDIA
 70
     0
  9
$ATTREQ
 70
     1
  9
$HANDLING
 70
     1
  9
$HANDSEED
  5
4E8
  9
$SURFTAB1
 70
     6
  9
$SURFTAB2
 70
     6
  9
$SURFTYPE
 70
     6
  9
$SURFU
 70
     6
  9
$SURFV
 70
     6
  9
$UCSNAME
  2

  9
$UCSORG
 10
0.0
 20
0.0
 30
0.0
  9
$UCSXDIR
 10
1.0
 20
0.0
 30
0.0
  9
$UCSYDIR
 10
0.0
 20
1.0
 30
0.0
  9
$PUCSNAME
  2

  9
$PUCSORG
 10
0.0
 20
0.0
 30
0.0
  9
$PUCSXDIR
 10
1.0
 20
0.0
 30
0.0
  9
$PUCSYDIR
 10
0.0
 20
1.0
 30
0.0
  9
$USERI1
 70
     0
  9
$USERI2
 70
     0
  9
$USERI3
 70
     0
  9
$USERI4
 70
     0
  9
$USERI5
 70
     0
  9
$USERR1
 40
0.0
  9
$USERR2
 40
0.0
  9
$USERR3
 40
0.0
  9
$USERR4
 40
0.0
  9
$USERR5
 40
0.0
  9
$WORLDVIEW
 70
     1
  9
$SHADEDGE
 70
     3
  9
$SHADEDIF
 70
    70
  9
$TILEMODE
 70
     1
  9
$MAXACTVP
 70
     4
  9
$PINSBASE
 10
0.0
 20
0.0
 30
0.0
  9
$PLIMCHECK
 70
     0
  9
$PEXTMIN
 10
1.00000000E+20
 20
1.00000000E+20
 30
1.00000000E+20
  9
$PEXTMAX
 10
-1.00000000E+20
 20
-1.00000000E+20
 30
-1.00000000E+20
  9
$PLIMMIN
 10
0.0
 20
0.0
  9
$PLIMMAX
 10
12.0
 20
9.0
  9
$UNITMODE
 70
     0
  9
$VISRETAIN
 70
     0
  9
$PLINEGEN
 70
     0
  9
$PSLTSCALE
 70
     0
  9
$TREEDEPTH
 70
  3020
  9
$PICKSTYLE
 70
     1
  9
$CMLSTYLE
  2
STANDARD
  9
$CMLJUST
 70
     0
  9
$CMLSCALE
 40
1.0
  9
$SAVEIMAGES
 70
     0
  0
ENDSEC
  0
SECTION
  2
CLASSES
  0
ENDSEC
  0
SECTION
  2
TABLES
  0
TABLE
  2
VPORT
  5
8
100
AcDbSymbolTable
 70
     2
  0
VPORT
  5
4E7
100
AcDbSymbolTableRecord
100
AcDbViewportTableRecord
  2
*ACTIVE
 70
     0
 10
0.0
 20
0.0
 11
1.0
 21
1.0
 12
11.73573301
 22
0.96254684
 13
0.0
 23
0.0
 14
1.0
 24
1.0
 15
0.0
 25
0.0
 16
0.0
 26
0.0
 36
1.0
 17
0.0
 27
0.0
 37
0.0
 40
36.82942827
 41
1.56451613
 42
50.0
 43
0.0
 44
0.0
 50
0.0
 51
0.0
 71
     0
 72
   100
 73
     1
 74
     0
 75
     0
 76
     0
 77
     0
 78
     0
  0
ENDTAB
  0
TABLE
  2
LTYPE
  5
5
100
AcDbSymbolTable
 70
     3
  0
LTYPE
  5
12
100
AcDbSymbolTableRecord
100
AcDbLinetypeTableRecord
  2
BYBLOCK
 70
     0
  3

 72
    65
 73
     0
 40
0.0
  0
LTYPE
  5
13
100
AcDbSymbolTableRecord
100
AcDbLinetypeTableRecord
  2
BYLAYER
 70
     0
  3

 72
    65
 73
     0
 40
0.0
  0
LTYPE
  5
14
100
AcDbSymbolTableRecord
100
AcDbLinetypeTableRecord
  2
CONTINUOUS
 70
    64
  3
Solid line
 72
    65
 73
     0
 40
0.0
  0
LTYPE
  5
1D
100
AcDbSymbolTableRecord
100
AcDbLinetypeTableRecord
  2
HIDDEN
 70
    64
  3
_ _ _ _ _ _ _ _ _ _ _ _ _ _ _ _ _ _ _ _ _ _ _
 72
    65
 73
     2
 40
0.375
 49
0.25
 74
     0
 49
-0.125
 74
     0
  0
LTYPE
  5
1E
100
AcDbSymbolTableRecord
100
AcDbLinetypeTableRecord
  2
HIDDEN2
 70
    64
  3
_ _ _ _ _ _ _ _ _ _ _ _ _ _ _ _ _ _ _ _ _ _ _ _
 72
    65
 73
     2
 40
0.1875
 49
0.125
 74
     0
 49
-0.0625
 74
     0
  0
ENDTAB
  0
TABLE
  2
LAYER
  5
2
100
AcDbSymbolTable
 70
     1
  0
LAYER
  5
F
100
AcDbSymbolTableRecord
100
AcDbLayerTableRecord
  2
0
 70
    64
 62
     7
  6
CONTINUOUS
  0
ENDTAB
  0
TABLE
  2
STYLE
  5
3
100
AcDbSymbolTable
 70
     2
  0
STYLE
  5
10
100
AcDbSymbolTableRecord
100
AcDbTextStyleTableRecord
  2
STANDARD
 70
     0
 40
0.0
 41
1.0
 50
0.0
 71
     0
 42
0.28
  3
txt
  4

  0
STYLE
  5
1C
100
AcDbSymbolTableRecord
100
AcDbTextStyleTableRecord
  2
ROMANS
 70
    64
 40
0.0
 41
1.0
 50
0.0
 71
     0
 42
0.28
  3
romans
  4

  0
ENDTAB
  0
TABLE
  2
VIEW
  5
6
100
AcDbSymbolTable
 70
     0
  0
ENDTAB
  0
TABLE
  2
UCS
  5
7
100
AcDbSymbolTable
 70
     0
  0
ENDTAB
  0
TABLE
  2
APPID
  5
9
100
AcDbSymbolTable
 70
     1
  0
APPID
  5
11
100
AcDbSymbolTableRecord
100
AcDbRegAppTableRecord
  2
ACAD
 70
    64
  0
ENDTAB
  0
TABLE
  2
DIMSTYLE
  5
A
100
AcDbSymbolTable
 70
     1
  0
DIMSTYLE
105
4CF
100
AcDbSymbolTableRecord
100
AcDbDimStyleTableRecord
  2
STANDARD
 70
     0
  3

  4

  5

  6

  7

 40
1.0
 41
0.18
 42
0.0625
 43
0.38
 44
0.18
 45
0.0
 46
0.0
 47
0.0
 48
0.0
140
0.18
141
0.09
142
0.0
143
25.4
144
1.0
145
0.0
146
1.0
147
0.09
 71
     0
 72
     0
 73
     1
 74
     1
 75
     0
 76
     0
 77
     0
 78
     0
170
     0
171
     2
172
     0
173
     0
174
     0
175
     0
176
     0
177
     0
178
     0
270
     2
271
     4
272
     4
273
     2
274
     2
340
10
275
     0
280
     0
281
     0
282
     0
283
     1
284
     0
285
     0
286
     0
287
     3
288
     0
  0
ENDTAB
  0
TABLE
  2
BLOCK_RECORD
  5
1
100
AcDbSymbolTable
 70
     0
  0
BLOCK_RECORD
  5
18
100
AcDbSymbolTableRecord
100
AcDbBlockTableRecord
  2
*MODEL_SPACE
  0
BLOCK_RECORD
  5
15
100
AcDbSymbolTableRecord
100
AcDbBlockTableRecord
  2
*PAPER_SPACE
  0
ENDTAB
  0
ENDSEC
  0
SECTION
  2
BLOCKS
  0
BLOCK
  5
23
100
AcDbEntity
  8
0
100
AcDbBlockBegin
  2
*MODEL_SPACE
 70
     0
 10
0.0
 20
0.0
 30
0.0
  3
*MODEL_SPACE
  1

  0
ENDBLK
  5
24
100
AcDbEntity
  8
0
100
AcDbBlockEnd
  0
BLOCK
  5
21
100
AcDbEntity
 67
     1
  8
0
100
AcDbBlockBegin
  2
*PAPER_SPACE
 70
     0
 10
0.0
 20
0.0
 30
0.0
  3
*PAPER_SPACE
  1

  0
ENDBLK
  5
22
100
AcDbEntity
 67
     1
  8
0
100
AcDbBlockEnd
  0
ENDSEC
  0
SECTION
  2
ENTITIES
  0
POINT
  5
25
100
AcDbEntity
  8
0
  6
BYBLOCK
 62
     7
100
AcDbPoint
 10
-16.80438427
 20
17.86448501
 30
0.0
  0
POINT
  5
26
100
AcDbEntity
  8
0
  6
BYBLOCK
 62
     7
100
AcDbPoint
 10
-9.24962178
 20
17.86448501
 30
0.0
  0
POINT
  5
27
100
AcDbEntity
  8
0
  6
BYBLOCK
 62
     7
100
AcDbPoint
 10
-13.37462178
 20
1.11348501
 30
0.0
  0
TEXT
  5
28
100
AcDbEntity
  8
0
  6
BYBLOCK
 62
     7
100
AcDbText
 10
-16.94581284
 20
9.35398501
 30
0.0
 40
0.27
  1
D
  7
ROMANS
 72
     1
 11
-16.80438427
 21
9.48898501
 31
0.0
100
AcDbText
 73
     2
  0
SOLID
  5
29
100
AcDbEntity
  8
0
  6
BYBLOCK
 62
     7
100
AcDbTrace
 10
-16.84938427
 20
17.59448501
 30
0.0
 11
-16.75938427
 21
17.59448501
 31
0.0
 12
-16.80438427
 22
17.86448501
 32
0.0
 13
-16.80438427
 23
17.86448501
 33
0.0
  0
SOLID
  5
2A
100
AcDbEntity
  8
0
  6
BYBLOCK
 62
     7
100
AcDbTrace
 10
-16.84938427
 20
1.38348501
 30
0.0
 11
-16.75938427
 21
1.38348501
 31
0.0
 12
-16.80438427
 22
1.11348501
 32
0.0
 13
-16.80438427
 23
1.11348501
 33
0.0
  0
LINE
  5
2B
100
AcDbEntity
  8
0
  6
BYBLOCK
 62
     7
100
AcDbLine
 10
-16.80438427
 20
17.59448501
 30
0.0
 11
-16.80438427
 21
9.75898501
 31
0.0
  0
LINE
  5
2C
100
AcDbEntity
  8
0
  6
BYBLOCK
 62
     7
100
AcDbLine
 10
-16.80438427
 20
1.38348501
 30
0.0
 11
-16.80438427
 21
9.21898501
 31
0.0
  0
LINE
  5
2D
100
AcDbEntity
  8
0
  6
BYBLOCK
 62
     7
100
AcDbLine
 10
-9.34337178
 20
17.86448501
 30
0.0
 11
-17.07438427
 21
17.86448501
 31
0.0
  0
LINE
  5
2E
100
AcDbEntity
  8
0
  6
BYBLOCK
 62
     7
100
AcDbLine
 10
-13.46837178
 20
1.11348501
 30
0.0
 11
-17.07438427
 21
1.11348501
 31
0.0
  0
POINT
  5
2F
100
AcDbEntity
  8
0
  6
BYBLOCK
 62
     7
100
AcDbPoint
 10
-1.12773885
 20
0.05895422
 30
0.0
  0
POINT
  5
30
100
AcDbEntity
  8
0
  6
BYBLOCK
 62
     7
100
AcDbPoint
 10
-1.12773885
 20
3.92548501
 30
0.0
  0
POINT
  5
31
100
AcDbEntity
  8
0
  6
BYBLOCK
 62
     7
100
AcDbPoint
 10
-15.37150471
 20
3.92548501
 30
0.0
  0
TEXT
  5
32
100
AcDbEntity
  8
0
  6
BYBLOCK
 62
     7
100
AcDbText
 10
-8.36533607
 20
-0.07604578
 30
0.0
 40
0.27
  1
A
  7
ROMANS
 72
     1
 11
-8.24962178
 21
0.05895422
 31
0.0
100
AcDbText
 73
     2
  0
SOLID
  5
33
100
AcDbEntity
  8
0
  6
BYBLOCK
 62
     7
100
AcDbTrace
 10
-1.39773885
 20
0.10395422
 30
0.0
 11
-1.39773885
 21
0.01395422
 31
0.0
 12
-1.12773885
 22
0.05895422
 32
0.0
 13
-1.12773885
 23
0.05895422
 33
0.0
  0
SOLID
  5
34
100
AcDbEntity
  8
0
  6
BYBLOCK
 62
     7
100
AcDbTrace
 10
-15.10150471
 20
0.10395422
 30
0.0
 11
-15.10150471
 21
0.01395422
 31
0.0
 12
-15.37150471
 22
0.05895422
 32
0.0
 13
-15.37150471
 23
0.05895422
 33
0.0
  0
LINE
  5
35
100
AcDbEntity
  8
0
  6
BYBLOCK
 62
     7
100
AcDbLine
 10
-1.39773885
 20
0.05895422
 30
0.0
 11
-8.02462178
 21
0.05895422
 31
0.0
  0
LINE
  5
36
100
AcDbEntity
  8
0
  6
BYBLOCK
 62
     7
100
AcDbLine
 10
-15.10150471
 20
0.05895422
 30
0.0
 11
-8.47462178
 21
0.05895422
 31
0.0
  0
LINE
  5
37
100
AcDbEntity
  8
0
  6
BYBLOCK
 62
     7
100
AcDbLine
 10
-1.12773885
 20
3.83173501
 30
0.0
 11
-1.12773885
 21
-0.21104578
 31
0.0
  0
LINE
  5
38
100
AcDbEntity
  8
0
  6
BYBLOCK
 62
     7
100
AcDbLine
 10
-15.37150471
 20
3.83173501
 30
0.0
 11
-15.37150471
 21
-0.21104578
 31
0.0
  0
POINT
  5
39
100
AcDbEntity
  8
0
  6
BYBLOCK
 62
     7
100
AcDbPoint
 10
-0.14368675
 20
3.55048501
 30
0.0
  0
POINT
  5
3A
100
AcDbEntity
  8
0
  6
BYBLOCK
 62
     7
100
AcDbPoint
 10
-8.13712178
 20
3.55048501
 30
0.0
  0
POINT
  5
3B
100
AcDbEntity
  8
0
  6
BYBLOCK
 62
     7
100
AcDbPoint
 10
-3.12462178
 20
1.11348501
 30
0.0
  0
TEXT
  5
3C
100
AcDbEntity
  8
0
  6
BYBLOCK
 62
     7
100
AcDbText
 10
-0.28511532
 20
2.19698501
 30
0.0
 40
0.27
  1
B
  7
ROMANS
 72
     1
 11
-0.14368675
 21
2.33198501
 31
0.0
100
AcDbText
 73
     2
  0
SOLID
  5
3D
100
AcDbEntity
  8
0
  6
BYBLOCK
 62
     7
100
AcDbTrace
 10
-0.18868675
 20
3.28048501
 30
0.0
 11
-0.09868675
 21
3.28048501
 31
0.0
 12
-0.14368675
 22
3.55048501
 32
0.0
 13
-0.14368675
 23
3.55048501
 33
0.0
  0
SOLID
  5
3E
100
AcDbEntity
  8
0
  6
BYBLOCK
 62
     7
100
AcDbTrace
 10
-0.18868675
 20
1.38348501
 30
0.0
 11
-0.09868675
 21
1.38348501
 31
0.0
 12
-0.14368675
 22
1.11348501
 32
0.0
 13
-0.14368675
 23
1.11348501
 33
0.0
  0
LINE
  5
3F
100
AcDbEntity
  8
0
  6
BYBLOCK
 62
     7
100
AcDbLine
 10
-0.14368675
 20
3.28048501
 30
0.0
 11
-0.14368675
 21
2.60198501
 31
0.0
  0
LINE
  5
40
100
AcDbEntity
  8
0
  6
BYBLOCK
 62
     7
100
AcDbLine
 10
-0.14368675
 20
1.38348501
 30
0.0
 11
-0.14368675
 21
2.06198501
 31
0.0
  0
LINE
  5
41
100
AcDbEntity
  8
0
  6
BYBLOCK
 62
     7
100
AcDbLine
 10
-8.04337178
 20
3.55048501
 30
0.0
 11
0.12631325
 21
3.55048501
 31
0.0
  0
LINE
  5
42
100
AcDbEntity
  8
0
  6
BYBLOCK
 62
     7
100
AcDbLine
 10
-3.03087178
 20
1.11348501
 30
0.0
 11
0.12631325
 21
1.11348501
 31
0.0
  0
POINT
  5
43
100
AcDbEntity
  8
0
  6
BYBLOCK
 62
     7
100
AcDbPoint
 10
1.39359958
 20
10.37726493
 30
0.0
  0
POINT
  5
44
100
AcDbEntity
  8
0
  6
BYBLOCK
 62
     7
100
AcDbPoint
 10
-7.74962178
 20
10.37726493
 30
0.0
  0
POINT
  5
45
100
AcDbEntity
  8
0
  6
BYBLOCK
 62
     7
100
AcDbPoint
 10
-3.12462178
 20
1.11348501
 30
0.0
  0
TEXT
  5
46
100
AcDbEntity
  8
0
  6
BYBLOCK
 62
     7
100
AcDbText
 10
1.25859958
 20
5.61037497
 30
0.0
 40
0.27
  1
C
  7
ROMANS
 72
     1
 11
1.39359958
 21
5.74537497
 31
0.0
100
AcDbText
 73
     2
  0
SOLID
  5
47
100
AcDbEntity
  8
0
  6
BYBLOCK
 62
     7
100
AcDbTrace
 10
1.34859958
 20
10.10726493
 30
0.0
 11
1.43859958
 21
10.10726493
 31
0.0
 12
1.39359958
 22
10.37726493
 32
0.0
 13
1.39359958
 23
10.37726493
 33
0.0
  0
SOLID
  5
48
100
AcDbEntity
  8
0
  6
BYBLOCK
 62
     7
100
AcDbTrace
 10
1.34859958
 20
1.38348501
 30
0.0
 11
1.43859958
 21
1.38348501
 31
0.0
 12
1.39359958
 22
1.11348501
 32
0.0
 13
1.39359958
 23
1.11348501
 33
0.0
  0
LINE
  5
49
100
AcDbEntity
  8
0
  6
BYBLOCK
 62
     7
100
AcDbLine
 10
1.39359958
 20
10.10726493
 30
0.0
 11
1.39359958
 21
6.01537497
 31
0.0
  0
LINE
  5
4A
100
AcDbEntity
  8
0
  6
BYBLOCK
 62
     7
100
AcDbLine
 10
1.39359958
 20
1.38348501
 30
0.0
 11
1.39359958
 21
5.47537497
 31
0.0
  0
LINE
  5
4B
100
AcDbEntity
  8
0
  6
BYBLOCK
 62
     7
100
AcDbLine
 10
-7.65587178
 20
10.37726493
 30
0.0
 11
1.66359958
 21
10.37726493
 31
0.0
  0
LINE
  5
4C
100
AcDbEntity
  8
0
  6
BYBLOCK
 62
     7
100
AcDbLine
 10
-3.03087178
 20
1.11348501
 30
0.0
 11
1.66359958
 21
1.11348501
 31
0.0
  0
POINT
  5
4F
100
AcDbEntity
  8
0
  6
BYBLOCK
 62
     7
100
AcDbPoint
 10
10.98166271
 20
1.11348501
 30
0.0
  0
POINT
  5
57
100
AcDbEntity
  8
0
  6
BYBLOCK
 62
     7
100
AcDbPoint
 10
19.90964591
 20
-0.05278861
 30
0.0
  0
POINT
  5
58
100
AcDbEntity
  8
0
  6
BYBLOCK
 62
     7
100
AcDbPoint
 10
19.90964591
 20
7.92498501
 30
0.0
  0
POINT
  5
59
100
AcDbEntity
  8
0
  6
BYBLOCK
 62
     7
100
AcDbPoint
 10
8.85666271
 20
7.83098501
 30
0.0
  0
TEXT
  5
5A
100
AcDbEntity
  8
0
  6
BYBLOCK
 62
     7
100
AcDbText
 10
14.24815431
 20
-0.18778861
 30
0.0
 40
0.27
  1
E
  7
ROMANS
 72
     4
 11
14.38315431
 21
-0.05278861
 31
0.0
100
AcDbText
  0
SOLID
  5
5B
100
AcDbEntity
  8
0
  6
BYBLOCK
 62
     7
100
AcDbTrace
 10
19.63964591
 20
-0.00778861
 30
0.0
 11
19.63964591
 21
-0.09778861
 31
0.0
 12
19.90964591
 22
-0.05278861
 32
0.0
 13
19.90964591
 23
-0.05278861
 33
0.0
  0
SOLID
  5
5C
100
AcDbEntity
  8
0
  6
BYBLOCK
 62
     7
100
AcDbTrace
 10
9.12666271
 20
-0.00778861
 30
0.0
 11
9.12666271
 21
-0.09778861
 31
0.0
 12
8.85666271
 22
-0.05278861
 32
0.0
 13
8.85666271
 23
-0.05278861
 33
0.0
  0
LINE
  5
5D
100
AcDbEntity
  8
0
  6
BYBLOCK
 62
     7
100
AcDbLine
 10
19.63964591
 20
-0.05278861
 30
0.0
 11
14.60815431
 21
-0.05278861
 31
0.0
  0
LINE
  5
5E
100
AcDbEntity
  8
0
  6
BYBLOCK
 62
     7
100
AcDbLine
 10
9.12666271
 20
-0.05278861
 30
0.0
 11
14.15815431
 21
-0.05278861
 31
0.0
  0
LINE
  5
5F
100
AcDbEntity
  8
0
  6
BYBLOCK
 62
     7
100
AcDbLine
 10
19.90964591
 20
7.83123501
 30
0.0
 11
19.90964591
 21
-0.32278861
 31
0.0
  0
LINE
  5
60
100
AcDbEntity
  8
0
  6
BYBLOCK
 62
     7
100
AcDbLine
 10
8.85666271
 20
7.73723501
 30
0.0
 11
8.85666271
 21
-0.32278861
 31
0.0
  0
POINT
  5
61
100
AcDbEntity
  8
0
  6
BYBLOCK
 62
     7
100
AcDbPoint
 10
19.24745026
 20
-6.24792516
 30
0.0
  0
POINT
  5
62
100
AcDbEntity
  8
0
  6
BYBLOCK
 62
     7
100
AcDbPoint
 10
19.24745026
 20
-11.91700094
 30
0.0
  0
POINT
  5
63
100
AcDbEntity
  8
0
  6
BYBLOCK
 62
     7
100
AcDbPoint
 10
5.99745026
 20
-11.91700094
 30
0.0
  0
TEXT
  5
64
100
AcDbEntity
  8
0
  6
BYBLOCK
 62
     7
100
AcDbText
 10
13.75203738
 20
-6.38292516
 30
0.0
 40
0.27
  1
M
  7
ROMANS
 72
     4
 11
13.90632309
 21
-6.24792516
 31
0.0
100
AcDbText
  0
SOLID
  5
65
100
AcDbEntity
  8
0
  6
BYBLOCK
 62
     7
100
AcDbTrace
 10
18.97745026
 20
-6.20292516
 30
0.0
 11
18.97745026
 21
-6.29292516
 31
0.0
 12
19.24745026
 22
-6.24792516
 32
0.0
 13
19.24745026
 23
-6.24792516
 33
0.0
  0
SOLID
  5
66
100
AcDbEntity
  8
0
  6
BYBLOCK
 62
     7
100
AcDbTrace
 10
6.26745026
 20
-6.20292516
 30
0.0
 11
6.26745026
 21
-6.29292516
 31
0.0
 12
5.99745026
 22
-6.24792516
 32
0.0
 13
5.99745026
 23
-6.24792516
 33
0.0
  0
LINE
  5
67
100
AcDbEntity
  8
0
  6
BYBLOCK
 62
     7
100
AcDbLine
 10
18.97745026
 20
-6.24792516
 30
0.0
 11
14.13132309
 21
-6.24792516
 31
0.0
  0
LINE
  5
68
100
AcDbEntity
  8
0
  6
BYBLOCK
 62
     7
100
AcDbLine
 10
6.26745026
 20
-6.24792516
 30
0.0
 11
13.68132309
 21
-6.24792516
 31
0.0
  0
LINE
  5
69
100
AcDbEntity
  8
0
  6
BYBLOCK
 62
     7
100
AcDbLine
 10
19.24745026
 20
-11.82325094
 30
0.0
 11
19.24745026
 21
-5.97792516
 31
0.0
  0
LINE
  5
6A
100
AcDbEntity
  8
0
  6
BYBLOCK
 62
     7
100
AcDbLine
 10
5.99745026
 20
-11.82325094
 30
0.0
 11
5.99745026
 21
-5.97792516
 31
0.0
  0
POINT
  5
6B
100
AcDbEntity
  8
0
  6
BYBLOCK
 62
     7
100
AcDbPoint
 10
16.99745026
 20
-7.12476272
 30
0.0
  0
POINT
  5
6C
100
AcDbEntity
  8
0
  6
BYBLOCK
 62
     7
100
AcDbPoint
 10
16.99745026
 20
-8.80450094
 30
0.0
  0
POINT
  5
6D
100
AcDbEntity
  8
0
  6
BYBLOCK
 62
     7
100
AcDbPoint
 10
8.24745026
 20
-8.80450094
 30
0.0
  0
TEXT
  5
6E
100
AcDbEntity
  8
0
  6
BYBLOCK
 62
     7
100
AcDbText
 10
12.03847791
 20
-7.25976272
 30
0.0
 40
0.27
  1
N
  7
ROMANS
 72
     4
 11
12.17990648
 21
-7.12476272
 31
0.0
100
AcDbText
  0
SOLID
  5
6F
100
AcDbEntity
  8
0
  6
BYBLOCK
 62
     7
100
AcDbTrace
 10
16.72745026
 20
-7.07976272
 30
0.0
 11
16.72745026
 21
-7.16976272
 31
0.0
 12
16.99745026
 22
-7.12476272
 32
0.0
 13
16.99745026
 23
-7.12476272
 33
0.0
  0
SOLID
  5
70
100
AcDbEntity
  8
0
  6
BYBLOCK
 62
     7
100
AcDbTrace
 10
8.51745026
 20
-7.07976272
 30
0.0
 11
8.51745026
 21
-7.16976272
 31
0.0
 12
8.24745026
 22
-7.12476272
 32
0.0
 13
8.24745026
 23
-7.12476272
 33
0.0
  0
LINE
  5
71
100
AcDbEntity
  8
0
  6
BYBLOCK
 62
     7
100
AcDbLine
 10
16.72745026
 20
-7.12476272
 30
0.0
 11
12.40490648
 21
-7.12476272
 31
0.0
  0
LINE
  5
72
100
AcDbEntity
  8
0
  6
BYBLOCK
 62
     7
100
AcDbLine
 10
8.51745026
 20
-7.12476272
 30
0.0
 11
11.95490648
 21
-7.12476272
 31
0.0
  0
LINE
  5
73
100
AcDbEntity
  8
0
  6
BYBLOCK
 62
     7
100
AcDbLine
 10
16.99745026
 20
-8.71075094
 30
0.0
 11
16.99745026
 21
-6.85476272
 31
0.0
  0
LINE
  5
74
100
AcDbEntity
  8
0
  6
BYBLOCK
 62
     7
100
AcDbLine
 10
8.24745026
 20
-8.71075094
 30
0.0
 11
8.24745026
 21
-6.85476272
 31
0.0
  0
POINT
  5
75
100
AcDbEntity
  8
0
  6
BYBLOCK
 62
     7
100
AcDbPoint
 10
8.49745026
 20
-16.49304936
 30
0.0
  0
POINT
  5
76
100
AcDbEntity
  8
0
  6
BYBLOCK
 62
     7
100
AcDbPoint
 10
8.49745026
 20
-15.72950094
 30
0.0
  0
POINT
  5
77
100
AcDbEntity
  8
0
  6
BYBLOCK
 62
     7
100
AcDbPoint
 10
7.99745026
 20
-15.72950094
 30
0.0
  0
TEXT
  5
78
100
AcDbEntity
  8
0
  6
BYBLOCK
 62
     7
100
AcDbText
 10
9.15959312
 20
-16.62804936
 30
0.0
 40
0.27
  1
T
  7
ROMANS
 72
     4
 11
9.26245026
 21
-16.49304936
 31
0.0
100
AcDbText
  0
SOLID
  5
79
100
AcDbEntity
  8
0
  6
BYBLOCK
 62
     7
100
AcDbTrace
 10
8.76745026
 20
-16.44804936
 30
0.0
 11
8.76745026
 21
-16.53804936
 31
0.0
 12
8.49745026
 22
-16.49304936
 32
0.0
 13
8.49745026
 23
-16.49304936
 33
0.0
  0
SOLID
  5
7A
100
AcDbEntity
  8
0
  6
BYBLOCK
 62
     7
100
AcDbTrace
 10
7.72745026
 20
-16.44804936
 30
0.0
 11
7.72745026
 21
-16.53804936
 31
0.0
 12
7.99745026
 22
-16.49304936
 32
0.0
 13
7.99745026
 23
-16.49304936
 33
0.0
  0
LINE
  5
7B
100
AcDbEntity
  8
0
  6
BYBLOCK
 62
     7
100
AcDbLine
 10
8.76745026
 20
-16.49304936
 30
0.0
 11
9.03745026
 21
-16.49304936
 31
0.0
  0
LINE
  5
7C
100
AcDbEntity
  8
0
  6
BYBLOCK
 62
     7
100
AcDbLine
 10
7.72745026
 20
-16.49304936
 30
0.0
 11
7.45745026
 21
-16.49304936
 31
0.0
  0
LINE
  5
7D
100
AcDbEntity
  8
0
  6
BYBLOCK
 62
     7
100
AcDbLine
 10
8.49745026
 20
-15.82325094
 30
0.0
 11
8.49745026
 21
-16.76304936
 31
0.0
  0
LINE
  5
7E
100
AcDbEntity
  8
0
  6
BYBLOCK
 62
     7
100
AcDbLine
 10
7.99745026
 20
-15.82325094
 30
0.0
 11
7.99745026
 21
-16.76304936
 31
0.0
  0
POINT
  5
7F
100
AcDbEntity
  8
0
  6
BYBLOCK
 62
     7
100
AcDbPoint
 10
4.88068468
 20
-11.91700094
 30
0.0
  0
POINT
  5
80
100
AcDbEntity
  8
0
  6
BYBLOCK
 62
     7
100
AcDbPoint
 10
5.99745026
 20
-11.91700094
 30
0.0
  0
POINT
  5
81
100
AcDbEntity
  8
0
  6
BYBLOCK
 62
     7
100
AcDbPoint
 10
11.34145026
 20
-13.79200094
 30
0.0
  0
TEXT
  5
82
100
AcDbEntity
  8
0
  6
BYBLOCK
 62
     7
100
AcDbText
 10
4.75211325
 20
-12.98950094
 30
0.0
 40
0.27
  1
S
  7
ROMANS
 72
     4
 11
4.88068468
 21
-12.85450094
 31
0.0
100
AcDbText
  0
SOLID
  5
83
100
AcDbEntity
  8
0
  6
BYBLOCK
 62
     7
100
AcDbTrace
 10
4.83568468
 20
-12.18700094
 30
0.0
 11
4.92568468
 21
-12.18700094
 31
0.0
 12
4.88068468
 22
-11.91700094
 32
0.0
 13
4.88068468
 23
-11.91700094
 33
0.0
  0
SOLID
  5
84
100
AcDbEntity
  8
0
  6
BYBLOCK
 62
     7
100
AcDbTrace
 10
4.83568468
 20
-13.52200094
 30
0.0
 11
4.92568468
 21
-13.52200094
 31
0.0
 12
4.88068468
 22
-13.79200094
 32
0.0
 13
4.88068468
 23
-13.79200094
 33
0.0
  0
LINE
  5
85
100
AcDbEntity
  8
0
  6
BYBLOCK
 62
     7
100
AcDbLine
 10
4.88068468
 20
-12.18700094
 30
0.0
 11
4.88068468
 21
-12.58450094
 31
0.0
  0
LINE
  5
86
100
AcDbEntity
  8
0
  6
BYBLOCK
 62
     7
100
AcDbLine
 10
4.88068468
 20
-13.52200094
 30
0.0
 11
4.88068468
 21
-13.12450094
 31
0.0
  0
LINE
  5
87
100
AcDbEntity
  8
0
  6
BYBLOCK
 62
     7
100
AcDbLine
 10
5.90370026
 20
-11.91700094
 30
0.0
 11
4.61068468
 21
-11.91700094
 31
0.0
  0
LINE
  5
88
100
AcDbEntity
  8
0
  6
BYBLOCK
 62
     7
100
AcDbLine
 10
11.24770026
 20
-13.79200094
 30
0.0
 11
4.61068468
 21
-13.79200094
 31
0.0
  0
POINT
  5
89
100
AcDbEntity
  8
0
  6
BYBLOCK
 62
     7
100
AcDbPoint
 10
-15.60879048
 20
-13.29314001
 30
0.0
  0
POINT
  5
8A
100
AcDbEntity
  8
0
  6
BYBLOCK
 62
     7
100
AcDbPoint
 10
-9.53062178
 20
-13.29314001
 30
0.0
  0
POINT
  5
8B
100
AcDbEntity
  8
0
  6
BYBLOCK
 62
     7
100
AcDbPoint
 10
-14.29712178
 20
-11.29314001
 30
0.0
  0
TEXT
  5
8C
100
AcDbEntity
  8
0
  6
BYBLOCK
 62
     7
100
AcDbText
 10
-15.75021905
 20
-12.42814001
 30
0.0
 40
0.27
  1
K
  7
ROMANS
 72
     4
 11
-15.60879048
 21
-12.29314001
 31
0.0
100
AcDbText
  0
SOLID
  5
8D
100
AcDbEntity
  8
0
  6
BYBLOCK
 62
     7
100
AcDbTrace
 10
-15.65379048
 20
-13.02314001
 30
0.0
 11
-15.56379048
 21
-13.02314001
 31
0.0
 12
-15.60879048
 22
-13.29314001
 32
0.0
 13
-15.60879048
 23
-13.29314001
 33
0.0
  0
SOLID
  5
8E
100
AcDbEntity
  8
0
  6
BYBLOCK
 62
     7
100
AcDbTrace
 10
-15.65379048
 20
-11.56314001
 30
0.0
 11
-15.56379048
 21
-11.56314001
 31
0.0
 12
-15.60879048
 22
-11.29314001
 32
0.0
 13
-15.60879048
 23
-11.29314001
 33
0.0
  0
LINE
  5
8F
100
AcDbEntity
  8
0
  6
BYBLOCK
 62
     7
100
AcDbLine
 10
-15.60879048
 20
-13.02314001
 30
0.0
 11
-15.60879048
 21
-12.56314001
 31
0.0
  0
LINE
  5
90
100
AcDbEntity
  8
0
  6
BYBLOCK
 62
     7
100
AcDbLine
 10
-15.60879048
 20
-11.56314001
 30
0.0
 11
-15.60879048
 21
-12.02314001
 31
0.0
  0
LINE
  5
91
100
AcDbEntity
  8
0
  6
BYBLOCK
 62
     7
100
AcDbLine
 10
-9.62437178
 20
-13.29314001
 30
0.0
 11
-15.87879048
 21
-13.29314001
 31
0.0
  0
LINE
  5
92
100
AcDbEntity
  8
0
  6
BYBLOCK
 62
     7
100
AcDbLine
 10
-14.39087178
 20
-11.29314001
 30
0.0
 11
-15.87879048
 21
-11.29314001
 31
0.0
  0
POINT
  5
93
100
AcDbEntity
  8
0
  6
BYBLOCK
 62
     7
100
AcDbPoint
 10
-3.12462178
 20
-5.79636469
 30
0.0
  0
POINT
  5
94
100
AcDbEntity
  8
0
  6
BYBLOCK
 62
     7
100
AcDbPoint
 10
-3.12462178
 20
-7.88714001
 30
0.0
  0
POINT
  5
95
100
AcDbEntity
  8
0
  6
BYBLOCK
 62
     7
100
AcDbPoint
 10
-13.37462178
 20
-7.88714001
 30
0.0
  0
TEXT
  5
96
100
AcDbEntity
  8
0
  6
BYBLOCK
 62
     7
100
AcDbText
 10
-8.38462178
 20
-5.93136469
 30
0.0
 40
0.27
  1
F
  7
ROMANS
 72
     4
 11
-8.24962178
 21
-5.79636469
 31
0.0
100
AcDbText
  0
SOLID
  5
97
100
AcDbEntity
  8
0
  6
BYBLOCK
 62
     7
100
AcDbTrace
 10
-3.39462178
 20
-5.75136469
 30
0.0
 11
-3.39462178
 21
-5.84136469
 31
0.0
 12
-3.12462178
 22
-5.79636469
 32
0.0
 13
-3.12462178
 23
-5.79636469
 33
0.0
  0
SOLID
  5
98
100
AcDbEntity
  8
0
  6
BYBLOCK
 62
     7
100
AcDbTrace
 10
-13.10462178
 20
-5.75136469
 30
0.0
 11
-13.10462178
 21
-5.84136469
 31
0.0
 12
-13.37462178
 22
-5.79636469
 32
0.0
 13
-13.37462178
 23
-5.79636469
 33
0.0
  0
LINE
  5
99
100
AcDbEntity
  8
0
  6
BYBLOCK
 62
     7
100
AcDbLine
 10
-3.39462178
 20
-5.79636469
 30
0.0
 11
-8.02462178
 21
-5.79636469
 31
0.0
  0
LINE
  5
9A
100
AcDbEntity
  8
0
  6
BYBLOCK
 62
     7
100
AcDbLine
 10
-13.10462178
 20
-5.79636469
 30
0.0
 11
-8.47462178
 21
-5.79636469
 31
0.0
  0
LINE
  5
9B
100
AcDbEntity
  8
0
  6
BYBLOCK
 62
     7
100
AcDbLine
 10
-3.12462178
 20
-7.79339001
 30
0.0
 11
-3.12462178
 21
-5.52636469
 31
0.0
  0
LINE
  5
9C
100
AcDbEntity
  8
0
  6
BYBLOCK
 62
     7
100
AcDbLine
 10
-13.37462178
 20
-7.79339001
 30
0.0
 11
-13.37462178
 21
-5.52636469
 31
0.0
  0
POINT
  5
9D
100
AcDbEntity
  8
0
  6
BYBLOCK
 62
     7
100
AcDbPoint
 10
-3.87462178
 20
-6.76861981
 30
0.0
  0
POINT
  5
9E
100
AcDbEntity
  8
0
  6
BYBLOCK
 62
     7
100
AcDbPoint
 10
-3.87462178
 20
-8.21164001
 30
0.0
  0
POINT
  5
9F
100
AcDbEntity
  8
0
  6
BYBLOCK
 62
     7
100
AcDbPoint
 10
-12.62462178
 20
-8.21164001
 30
0.0
  0
TEXT
  5
A0
100
AcDbEntity
  8
0
  6
BYBLOCK
 62
     7
100
AcDbText
 10
-8.38462178
 20
-6.90361981
 30
0.0
 40
0.27
  1
G
  7
ROMANS
 72
     4
 11
-8.24962178
 21
-6.76861981
 31
0.0
100
AcDbText
  0
SOLID
  5
A1
100
AcDbEntity
  8
0
  6
BYBLOCK
 62
     7
100
AcDbTrace
 10
-4.14462178
 20
-6.72361981
 30
0.0
 11
-4.14462178
 21
-6.81361981
 31
0.0
 12
-3.87462178
 22
-6.76861981
 32
0.0
 13
-3.87462178
 23
-6.76861981
 33
0.0
  0
SOLID
  5
A2
100
AcDbEntity
  8
0
  6
BYBLOCK
 62
     7
100
AcDbTrace
 10
-12.35462178
 20
-6.72361981
 30
0.0
 11
-12.35462178
 21
-6.81361981
 31
0.0
 12
-12.62462178
 22
-6.76861981
 32
0.0
 13
-12.62462178
 23
-6.76861981
 33
0.0
  0
LINE
  5
A3
100
AcDbEntity
  8
0
  6
BYBLOCK
 62
     7
100
AcDbLine
 10
-4.14462178
 20
-6.76861981
 30
0.0
 11
-8.02462178
 21
-6.76861981
 31
0.0
  0
LINE
  5
A4
100
AcDbEntity
  8
0
  6
BYBLOCK
 62
     7
100
AcDbLine
 10
-12.35462178
 20
-6.76861981
 30
0.0
 11
-8.47462178
 21
-6.76861981
 31
0.0
  0
LINE
  5
A5
100
AcDbEntity
  8
0
  6
BYBLOCK
 62
     7
100
AcDbLine
 10
-3.87462178
 20
-8.11789001
 30
0.0
 11
-3.87462178
 21
-6.49861981
 31
0.0
  0
LINE
  5
A6
100
AcDbEntity
  8
0
  6
BYBLOCK
 62
     7
100
AcDbLine
 10
-12.62462178
 20
-8.11789001
 30
0.0
 11
-12.62462178
 21
-6.49861981
 31
0.0
  0
POINT
  5
A7
100
AcDbEntity
  8
0
  6
BYBLOCK
 62
     7
100
AcDbPoint
 10
-12.40562178
 20
-15.53507001
 30
0.0
  0
POINT
  5
A8
100
AcDbEntity
  8
0
  6
BYBLOCK
 62
     7
100
AcDbPoint
 10
-12.40562178
 20
-14.69914001
 30
0.0
  0
POINT
  5
A9
100
AcDbEntity
  8
0
  6
BYBLOCK
 62
     7
100
AcDbPoint
 10
-12.84362178
 20
-14.69914001
 30
0.0
  0
TEXT
  5
AA
100
AcDbEntity
  8
0
  6
BYBLOCK
 62
     7
100
AcDbText
 10
-11.76919321
 20
-15.67007001
 30
0.0
 40
0.27
  1
L
  7
ROMANS
 72
     4
 11
-11.64062178
 21
-15.53507001
 31
0.0
100
AcDbText
  0
SOLID
  5
AB
100
AcDbEntity
  8
0
  6
BYBLOCK
 62
     7
100
AcDbTrace
 10
-12.13562178
 20
-15.49007001
 30
0.0
 11
-12.13562178
 21
-15.58007001
 31
0.0
 12
-12.40562178
 22
-15.53507001
 32
0.0
 13
-12.40562178
 23
-15.53507001
 33
0.0
  0
SOLID
  5
AC
100
AcDbEntity
  8
0
  6
BYBLOCK
 62
     7
100
AcDbTrace
 10
-13.11362178
 20
-15.49007001
 30
0.0
 11
-13.11362178
 21
-15.58007001
 31
0.0
 12
-12.84362178
 22
-15.53507001
 32
0.0
 13
-12.84362178
 23
-15.53507001
 33
0.0
  0
LINE
  5
AD
100
AcDbEntity
  8
0
  6
BYBLOCK
 62
     7
100
AcDbLine
 10
-12.13562178
 20
-15.53507001
 30
0.0
 11
-11.86562178
 21
-15.53507001
 31
0.0
  0
LINE
  5
AE
100
AcDbEntity
  8
0
  6
BYBLOCK
 62
     7
100
AcDbLine
 10
-13.11362178
 20
-15.53507001
 30
0.0
 11
-13.38362178
 21
-15.53507001
 31
0.0
  0
LINE
  5
AF
100
AcDbEntity
  8
0
  6
BYBLOCK
 62
     7
100
AcDbLine
 10
-12.40562178
 20
-14.79289001
 30
0.0
 11
-12.40562178
 21
-15.80507001
 31
0.0
  0
LINE
  5
B0
100
AcDbEntity
  8
0
  6
BYBLOCK
 62
     7
100
AcDbLine
 10
-12.84362178
 20
-14.79289001
 30
0.0
 11
-12.84362178
 21
-15.80507001
 31
0.0
  0
TEXT
  5
B1
100
AcDbEntity
  8
0
 62
     7
100
AcDbText
 10
29.33053068
 20
-4.38307796
 30
0.0
 40
0.28125
  1
12.7
  7
ROMANS
100
AcDbText
  0
TEXT
  5
B2
100
AcDbEntity
  8
0
 62
     7
100
AcDbText
 10
24.95172177
 20
-4.40497073
 30
0.0
 40
0.28125
  1
1/2
  7
ROMANS
100
AcDbText
  0
LINE
  5
B5
100
AcDbEntity
  8
0
 62
     7
100
AcDbLine
 10
17.43445026
 20
-15.72950094
 30
0.0
 11
17.43445026
 21
-8.10450094
 31
0.0
  0
LINE
  5
B6
100
AcDbEntity
  8
0
 62
     7
100
AcDbLine
 10
16.56045026
 20
-15.72950094
 30
0.0
 11
16.56045026
 21
-8.10450094
 31
0.0
  0
LINE
  5
B7
100
AcDbEntity
  8
0
 62
     7
100
AcDbLine
 10
7.81045026
 20
-15.72950094
 30
0.0
 11
7.81045026
 21
-8.10450094
 31
0.0
  0
LINE
  5
B8
100
AcDbEntity
  8
0
 62
     7
100
AcDbLine
 10
8.68445026
 20
-15.72950094
 30
0.0
 11
8.68445026
 21
-8.10450094
 31
0.0
  0
LINE
  5
B9
100
AcDbEntity
  8
0
 62
     7
100
AcDbLine
 10
22.13671853
 20
-3.52263303
 30
0.0
 11
31.69921853
 21
-3.52263303
 31
0.0
  0
TEXT
  5
BA
100
AcDbEntity
  8
0
 62
     7
100
AcDbText
 10
22.85559355
 20
-3.41730293
 30
0.0
 40
0.28125
  1
R
  7
ROMANS
100
AcDbText
  0
TEXT
  5
BB
100
AcDbEntity
  8
0
 62
     7
100
AcDbText
 10
29.04574356
 20
-2.94290756
 30
0.0
 40
0.28125
  1
150.8
  7
ROMANS
100
AcDbText
  0
TEXT
  5
BC
100
AcDbEntity
  8
0
 62
     7
100
AcDbText
 10
24.95172177
 20
-2.94290756
 30
0.0
 40
0.28125
  1
5 15/16
  7
ROMANS
100
AcDbText
  0
LINE
  5
BD
100
AcDbEntity
  8
0
 62
     7
100
AcDbLine
 10
22.13671853
 20
5.25236697
 30
0.0
 11
31.69921853
 21
5.25236697
 31
0.0
  0
LINE
  5
BE
100
AcDbEntity
  8
0
 62
     7
100
AcDbLine
 10
22.13671853
 20
-4.51263303
 30
0.0
 11
22.13671853
 21
5.25236697
 31
0.0
  0
LINE
  5
BF
100
AcDbEntity
  8
0
 62
     7
100
AcDbLine
 10
23.82421853
 20
-4.51263303
 30
0.0
 11
23.82421853
 21
4.57736697
 31
0.0
  0
LINE
  5
C0
100
AcDbEntity
  8
0
 62
     7
100
AcDbLine
 10
27.76171853
 20
-4.51263303
 30
0.0
 11
27.76171853
 21
4.57736697
 31
0.0
  0
LINE
  5
C1
100
AcDbEntity
  8
0
 62
     7
100
AcDbLine
 10
31.69921853
 20
-4.51263303
 30
0.0
 11
31.69921853
 21
5.25236697
 31
0.0
  0
LINE
  5
C2
100
AcDbEntity
  8
0
 62
     7
100
AcDbLine
 10
22.13671853
 20
4.57736697
 30
0.0
 11
31.69921853
 21
4.57736697
 31
0.0
  0
LINE
  5
C3
100
AcDbEntity
  8
0
 62
     7
100
AcDbLine
 10
22.13671853
 20
3.90236697
 30
0.0
 11
31.69921853
 21
3.90236697
 31
0.0
  0
TEXT
  5
C4
100
AcDbEntity
  8
0
 62
     7
100
AcDbText
 10
22.46935514
 20
4.08762321
 30
0.0
 40
0.28125
  1
ITEM
  7
ROMANS
100
AcDbText
  0
TEXT
  5
C5
100
AcDbEntity
  8
0
 62
     7
100
AcDbText
 10
23.91598417
 20
4.09461932
 30
0.0
 40
0.28125
  1
STANDARD (inch)
  7
ROMANS
100
AcDbText
  0
TEXT
  5
C6
100
AcDbEntity
  8
0
 62
     7
100
AcDbText
 10
28.42181352
 20
4.10837965
 30
0.0
 40
0.28125
  1
METRIC (mm)
  7
ROMANS
100
AcDbText
  0
TEXT
  5
C7
100
AcDbEntity
  8
0
 62
     7
100
AcDbText
 10
23.95805276
 20
4.73385987
 30
0.0
 40
0.28125
  1
DIMENSIONS - T4 (METAL)
  7
ROMANS
100
AcDbText
  0
TEXT
  5
C8
100
AcDbEntity
  8
0
 62
     7
100
AcDbText
 10
22.89042271
 20
3.49435914
 30
0.0
 40
0.28125
  1
A
  7
ROMANS
100
AcDbText
  0
TEXT
  5
C9
100
AcDbEntity
  8
0
 62
     7
100
AcDbText
 10
22.89042271
 20
3.02560914
 30
0.0
 40
0.28125
  1
B
  7
ROMANS
100
AcDbText
  0
TEXT
  5
CA
100
AcDbEntity
  8
0
 62
     7
100
AcDbText
 10
22.89042271
 20
2.55685914
 30
0.0
 40
0.28125
  1
C
  7
ROMANS
100
AcDbText
  0
TEXT
  5
CB
100
AcDbEntity
  8
0
 62
     7
100
AcDbText
 10
22.89042271
 20
2.02474738
 30
0.0
 40
0.28125
  1
D
  7
ROMANS
100
AcDbText
  0
TEXT
  5
CC
100
AcDbEntity
  8
0
 62
     7
100
AcDbText
 10
22.89042271
 20
1.55708982
 30
0.0
 40
0.28125
  1
E
  7
ROMANS
100
AcDbText
  0
TEXT
  5
CD
100
AcDbEntity
  8
0
 62
     7
100
AcDbText
 10
22.89042271
 20
1.06649094
 30
0.0
 40
0.28125
  1
F
  7
ROMANS
100
AcDbText
  0
TEXT
  5
CE
100
AcDbEntity
  8
0
 62
     7
100
AcDbText
 10
22.89042271
 20
0.55622807
 30
0.0
 40
0.28125
  1
G
  7
ROMANS
100
AcDbText
  0
TEXT
  5
CF
100
AcDbEntity
  8
0
 62
     7
100
AcDbText
 10
22.89042271
 20
0.0459652
 30
0.0
 40
0.28125
  1
H
  7
ROMANS
100
AcDbText
  0
TEXT
  5
D0
100
AcDbEntity
  8
0
 62
     7
100
AcDbText
 10
22.89042271
 20
-0.44463369
 30
0.0
 40
0.28125
  1
J
  7
ROMANS
100
AcDbText
  0
TEXT
  5
D1
100
AcDbEntity
  8
0
 62
     7
100
AcDbText
 10
22.89042271
 20
-0.93414012
 30
0.0
 40
0.28125
  1
K
  7
ROMANS
100
AcDbText
  0
TEXT
  5
D2
100
AcDbEntity
  8
0
 62
     7
100
AcDbText
 10
22.89042271
 20
-1.42364656
 30
0.0
 40
0.28125
  1
L
  7
ROMANS
100
AcDbText
  0
TEXT
  5
D3
100
AcDbEntity
  8
0
 62
     7
100
AcDbText
 10
22.89042271
 20
-1.89130412
 30
0.0
 40
0.28125
  1
M
  7
ROMANS
100
AcDbText
  0
TEXT
  5
D4
100
AcDbEntity
  8
0
 62
     7
100
AcDbText
 10
22.89042271
 20
-2.40265943
 30
0.0
 40
0.28125
  1
N
  7
ROMANS
100
AcDbText
  0
LINE
  5
D5
100
AcDbEntity
  8
0
 62
     7
100
AcDbLine
 10
22.13671853
 20
3.40736697
 30
0.0
 11
31.69921853
 21
3.40736697
 31
0.0
  0
LINE
  5
D6
100
AcDbEntity
  8
0
 62
     7
100
AcDbLine
 10
22.13671853
 20
2.91236697
 30
0.0
 11
31.69921853
 21
2.91236697
 31
0.0
  0
LINE
  5
D7
100
AcDbEntity
  8
0
 62
     7
100
AcDbLine
 10
22.13671853
 20
2.41736697
 30
0.0
 11
31.69921853
 21
2.41736697
 31
0.0
  0
LINE
  5
D8
100
AcDbEntity
  8
0
 62
     7
100
AcDbLine
 10
22.13671853
 20
1.92236697
 30
0.0
 11
31.69921853
 21
1.92236697
 31
0.0
  0
LINE
  5
D9
100
AcDbEntity
  8
0
 62
     7
100
AcDbLine
 10
22.13671853
 20
1.42736697
 30
0.0
 11
31.69921853
 21
1.42736697
 31
0.0
  0
LINE
  5
DA
100
AcDbEntity
  8
0
 62
     7
100
AcDbLine
 10
22.13671853
 20
0.93236697
 30
0.0
 11
31.69921853
 21
0.93236697
 31
0.0
  0
LINE
  5
DB
100
AcDbEntity
  8
0
 62
     7
100
AcDbLine
 10
22.13671853
 20
0.43736697
 30
0.0
 11
31.69921853
 21
0.43736697
 31
0.0
  0
LINE
  5
DC
100
AcDbEntity
  8
0
 62
     7
100
AcDbLine
 10
22.13671853
 20
-0.05763303
 30
0.0
 11
31.69921853
 21
-0.05763303
 31
0.0
  0
LINE
  5
DD
100
AcDbEntity
  8
0
 62
     7
100
AcDbLine
 10
22.13671853
 20
-0.55263303
 30
0.0
 11
31.69921853
 21
-0.55263303
 31
0.0
  0
LINE
  5
DE
100
AcDbEntity
  8
0
 62
     7
100
AcDbLine
 10
22.13671853
 20
-1.04763303
 30
0.0
 11
31.69921853
 21
-1.04763303
 31
0.0
  0
LINE
  5
DF
100
AcDbEntity
  8
0
 62
     7
100
AcDbLine
 10
22.13671853
 20
-1.54263303
 30
0.0
 11
31.69921853
 21
-1.54263303
 31
0.0
  0
LINE
  5
E0
100
AcDbEntity
  8
0
 62
     7
100
AcDbLine
 10
22.13671853
 20
-2.03763303
 30
0.0
 11
31.69921853
 21
-2.03763303
 31
0.0
  0
LINE
  5
E1
100
AcDbEntity
  8
0
 62
     7
100
AcDbLine
 10
22.13671853
 20
-2.53263303
 30
0.0
 11
31.69921853
 21
-2.53263303
 31
0.0
  0
LINE
  5
E2
100
AcDbEntity
  8
0
 62
     7
100
AcDbLine
 10
22.13671853
 20
-3.02763303
 30
0.0
 11
31.69921853
 21
-3.02763303
 31
0.0
  0
TEXT
  5
E3
100
AcDbEntity
  8
0
 62
     7
100
AcDbText
 10
22.85559355
 20
-2.94791551
 30
0.0
 40
0.28125
  1
P
  7
ROMANS
100
AcDbText
  0
TEXT
  5
E4
100
AcDbEntity
  8
0
 62
     7
100
AcDbText
 10
24.83558038
 20
3.51170788
 30
0.0
 40
0.28125
  1
14 17/32
  7
ROMANS
100
AcDbText
  0
TEXT
  5
E5
100
AcDbEntity
  8
0
 62
     7
100
AcDbText
 10
24.86922824
 20
3.01741957
 30
0.0
 40
0.28125
  1
2 15/32
  7
ROMANS
100
AcDbText
  0
TEXT
  5
E6
100
AcDbEntity
  8
0
 62
     7
100
AcDbText
 10
24.9670207
 20
2.53357789
 30
0.0
 40
0.28125
  1
9 7/32
  7
ROMANS
100
AcDbText
  0
TEXT
  5
E7
100
AcDbEntity
  8
0
 62
     7
100
AcDbText
 10
24.917636
 20
2.04865823
 30
0.0
 40
0.28125
  1
16 7/8
  7
ROMANS
100
AcDbText
  0
TEXT
  5
E9
100
AcDbEntity
  8
0
 62
     7
100
AcDbText
 10
24.88746626
 20
1.55872722
 30
0.0
 40
0.28125
  1
11 5/16
  7
ROMANS
100
AcDbText
  0
TEXT
  5
EA
100
AcDbEntity
  8
0
 62
     7
100
AcDbText
 10
24.95172177
 20
1.07380756
 30
0.0
 40
0.28125
  1
10 5/16
  7
ROMANS
100
AcDbText
  0
TEXT
  5
EB
100
AcDbEntity
  8
0
 62
     7
100
AcDbText
 10
24.95172177
 20
0.57379622
 30
0.0
 40
0.28125
  1
8 3/16
  7
ROMANS
100
AcDbText
  0
TEXT
  5
EC
100
AcDbEntity
  8
0
 62
     7
100
AcDbText
 10
24.95172177
 20
0.0727069
 30
0.0
 40
0.28125
  1
6
  7
ROMANS
100
AcDbText
  0
TEXT
  5
ED
100
AcDbEntity
  8
0
 62
     7
100
AcDbText
 10
24.95172177
 20
-0.44239613
 30
0.0
 40
0.28125
  1
7
  7
ROMANS
100
AcDbText
  0
TEXT
  5
EE
100
AcDbEntity
  8
0
 62
     7
100
AcDbText
 10
24.95912418
 20
-0.9122241
 30
0.0
 40
0.28125
  1
2
  7
ROMANS
100
AcDbText
  0
TEXT
  5
EF
100
AcDbEntity
  8
0
 62
     7
100
AcDbText
 10
24.95172177
 20
-1.41115747
 30
0.0
 40
0.28125
  1
7/16
  7
ROMANS
100
AcDbText
  0
TEXT
  5
F0
100
AcDbEntity
  8
0
 62
     7
100
AcDbText
 10
24.95172177
 20
-1.89715511
 30
0.0
 40
0.28125
  1
13 7/32
  7
ROMANS
100
AcDbText
  0
TEXT
  5
F1
100
AcDbEntity
  8
0
 62
     7
100
AcDbText
 10
24.95172177
 20
-2.39716645
 30
0.0
 40
0.28125
  1
8 3/4
  7
ROMANS
100
AcDbText
  0
TEXT
  5
F2
100
AcDbEntity
  8
0
 62
     7
100
AcDbText
 10
29.04574356
 20
-2.39716645
 30
0.0
 40
0.28125
  1
222.3
  7
ROMANS
100
AcDbText
  0
TEXT
  5
F3
100
AcDbEntity
  8
0
 62
     7
100
AcDbText
 10
29.04574356
 20
-1.89715511
 30
0.0
 40
0.28125
  1
335.7
  7
ROMANS
100
AcDbText
  0
TEXT
  5
F4
100
AcDbEntity
  8
0
 62
     7
100
AcDbText
 10
29.33053068
 20
-1.38926469
 30
0.0
 40
0.28125
  1
11.1
  7
ROMANS
100
AcDbText
  0
TEXT
  5
F5
100
AcDbEntity
  8
0
 62
     7
100
AcDbText
 10
29.33053068
 20
-0.89033133
 30
0.0
 40
0.28125
  1
50.8
  7
ROMANS
100
AcDbText
  0
TEXT
  5
F6
100
AcDbEntity
  8
0
 62
     7
100
AcDbText
 10
29.04574356
 20
-0.44239613
 30
0.0
 40
0.28125
  1
177.8
  7
ROMANS
100
AcDbText
  0
TEXT
  5
F7
100
AcDbEntity
  8
0
 62
     7
100
AcDbText
 10
29.04574356
 20
0.0727069
 30
0.0
 40
0.28125
  1
152.4
  7
ROMANS
100
AcDbText
  0
TEXT
  5
F8
100
AcDbEntity
  8
0
 62
     7
100
AcDbText
 10
29.04574356
 20
0.57379622
 30
0.0
 40
0.28125
  1
223.8
  7
ROMANS
100
AcDbText
  0
TEXT
  5
F9
100
AcDbEntity
  8
0
 62
     7
100
AcDbText
 10
29.04574356
 20
1.07380756
 30
0.0
 40
0.28125
  1
261.9
  7
ROMANS
100
AcDbText
  0
TEXT
  5
FA
100
AcDbEntity
  8
0
 62
     7
100
AcDbText
 10
28.98148805
 20
1.55872722
 30
0.0
 40
0.28125
  1
287.4
  7
ROMANS
100
AcDbText
  0
TEXT
  5
FC
100
AcDbEntity
  8
0
 62
     7
100
AcDbText
 10
29.04421367
 20
2.04865823
 30
0.0
 40
0.28125
  1
428.6
  7
ROMANS
100
AcDbText
  0
TEXT
  5
FD
100
AcDbEntity
  8
0
 62
     7
100
AcDbText
 10
29.06104249
 20
2.53357789
 30
0.0
 40
0.28125
  1
234.2
  7
ROMANS
100
AcDbText
  0
TEXT
  5
FE
100
AcDbEntity
  8
0
 62
     7
100
AcDbText
 10
29.31217196
 20
3.03931234
 30
0.0
 40
0.28125
  1
62.7
  7
ROMANS
100
AcDbText
  0
TEXT
  5
FF
100
AcDbEntity
  8
0
 62
     7
100
AcDbText
 10
29.06104249
 20
3.53360057
 30
0.0
 40
0.28125
  1
369.1
  7
ROMANS
100
AcDbText
  0
LINE
  5
100
100
AcDbEntity
  8
0
 62
     7
100
AcDbLine
 10
22.13671853
 20
-4.01763303
 30
0.0
 11
31.69921853
 21
-4.01763303
 31
0.0
  0
LINE
  5
101
100
AcDbEntity
  8
0
 62
     7
100
AcDbLine
 10
22.13671853
 20
-4.51263303
 30
0.0
 11
31.69921853
 21
-4.51263303
 31
0.0
  0
TEXT
  5
102
100
AcDbEntity
  8
0
 62
     7
100
AcDbText
 10
22.85559355
 20
-3.90911635
 30
0.0
 40
0.28125
  1
S
  7
ROMANS
100
AcDbText
  0
TEXT
  5
103
100
AcDbEntity
  8
0
 62
     7
100
AcDbText
 10
24.95172177
 20
-3.90997073
 30
0.0
 40
0.28125
  1
1 29/32
  7
ROMANS
100
AcDbText
  0
TEXT
  5
104
100
AcDbEntity
  8
0
 62
     7
100
AcDbText
 10
29.33053068
 20
-3.88807796
 30
0.0
 40
0.28125
  1
48.4
  7
ROMANS
100
AcDbText
  0
TEXT
  5
105
100
AcDbEntity
  8
0
 62
     7
100
AcDbText
 10
22.85559355
 20
-4.40092977
 30
0.0
 40
0.28125
  1
T
  7
ROMANS
100
AcDbText
  0
TEXT
  5
106
100
AcDbEntity
  8
0
 62
     7
100
AcDbText
 10
24.95172177
 20
-3.37738522
 30
0.0
 40
0.28125
  1
7 21/32
  7
ROMANS
100
AcDbText
  0
TEXT
  5
107
100
AcDbEntity
  8
0
 62
     7
100
AcDbText
 10
29.04574356
 20
-3.37738522
 30
0.0
 40
0.28125
  1
194.5
  7
ROMANS
100
AcDbText
  0
LINE
  5
108
100
AcDbEntity
  8
0
 62
     7
100
AcDbLine
 10
-10.87808027
 20
-0.94670768
 30
0.0
 11
-11.21917781
 21
-0.94670768
 31
0.0
  0
LINE
  5
109
100
AcDbEntity
  8
0
 62
     7
100
AcDbLine
 10
-8.79855654
 20
2.6355647
 30
0.0
 11
-10.87808027
 21
-0.94670768
 31
0.0
  0
SOLID
  5
10A
100
AcDbEntity
  8
0
 62
     7
100
AcDbTrace
 10
-8.83747442
 20
2.65815669
 30
0.0
 11
-8.75963865
 21
2.61297271
 31
0.0
 12
-8.66300458
 22
2.86907202
 32
0.0
 13
-8.66300458
 23
2.86907202
 33
0.0
  0
LINE
  5
10B
100
AcDbEntity
  8
0
 62
     7
100
AcDbLine
 10
-2.20262178
 20
6.01714518
 30
0.0
 11
-3.83289071
 21
6.01714518
 31
0.0
  0
LINE
  5
10C
100
AcDbEntity
  8
0
 62
     7
100
AcDbLine
 10
-4.22180491
 20
12.14014258
 30
0.0
 11
-4.22180491
 21
5.33582743
 31
0.0
  0
LINE
  5
10D
100
AcDbEntity
  8
0
 62
     7
100
AcDbLine
 10
-4.22180491
 20
12.14014258
 30
0.0
 11
-5.00153297
 21
12.45517316
 31
0.0
  0
ARC
  5
10E
100
AcDbEntity
  8
0
 62
     7
100
AcDbCircle
 10
-9.39062178
 20
8.73798501
 30
0.0
 40
6.188
100
AcDbArc
 50
326.64676031
 51
33.35323969
  0
LINE
  5
10F
100
AcDbEntity
  8
0
 62
     7
100
AcDbLine
 10
-4.26462178
 20
12.98848501
 30
0.0
 11
-1.89062178
 21
12.98848501
 31
0.0
  0
LINE
  5
110
100
AcDbEntity
  8
0
 62
     7
100
AcDbLine
 10
-4.22180491
 20
5.33582743
 30
0.0
 11
-5.00153297
 21
5.02079685
 31
0.0
  0
POINT
  5
111
100
AcDbEntity
  8
0
  6
BYBLOCK
 62
     7
100
AcDbPoint
 10
-2.20262178
 20
11.78786875
 30
0.0
  0
POINT
  5
112
100
AcDbEntity
  8
0
  6
BYBLOCK
 62
     7
100
AcDbPoint
 10
-2.20262178
 20
12.80048501
 30
0.0
  0
POINT
  5
113
100
AcDbEntity
  8
0
  6
BYBLOCK
 62
     7
100
AcDbPoint
 10
-2.20262178
 20
8.73798501
 30
0.0
  0
POINT
  5
114
100
AcDbEntity
  8
0
  6
BYBLOCK
 62
     7
100
AcDbPoint
 10
-2.20262178
 20
8.73798501
 30
0.0
  0
ARC
  5
115
100
AcDbEntity
  8
0
 62
     7
100
AcDbCircle
 10
-4.26462178
 20
12.49394456
 30
0.0
 40
0.312
100
AcDbArc
 50
248.0
 51
0.0
  0
ARC
  5
116
100
AcDbEntity
  8
0
 62
     7
100
AcDbCircle
 10
-1.89062178
 20
13.17648501
 30
0.0
 40
0.188
100
AcDbArc
 50
270.0
 51
0.0
  0
ARC
  5
117
100
AcDbEntity
  8
0
 62
     7
100
AcDbCircle
 10
-2.01462178
 20
12.80048501
 30
0.0
 40
0.188
100
AcDbArc
 50
90.0
 51
180.0
  0
ARC
  5
118
100
AcDbEntity
  8
0
 62
     7
100
AcDbCircle
 10
-4.14062178
 20
12.80048501
 30
0.0
 40
0.188
100
AcDbArc
 50
0.0
 51
90.0
  0
ARC
  5
119
100
AcDbEntity
  8
0
 62
     7
100
AcDbCircle
 10
-4.26462178
 20
13.17648501
 30
0.0
 40
0.188
100
AcDbArc
 50
180.0
 51
270.0
  0
LINE
  5
11A
100
AcDbEntity
  8
0
 62
     7
100
AcDbLine
 10
-3.95262178
 20
12.80048501
 30
0.0
 11
-3.95262178
 21
12.49394456
 31
0.0
  0
LINE
  5
11B
100
AcDbEntity
  8
0
 62
     7
100
AcDbLine
 10
-1.70262178
 20
4.98648501
 30
0.0
 11
-1.70262178
 21
4.24898948
 31
0.0
  0
ARC
  5
11C
100
AcDbEntity
  8
0
 62
     7
100
AcDbCircle
 10
-4.64044415
 20
4.96392167
 30
0.0
 40
0.188
100
AcDbArc
 50
357.5091501
 51
112.0
  0
LINE
  5
11D
100
AcDbEntity
  8
0
 62
     7
100
AcDbLine
 10
-2.20262178
 20
12.80048501
 30
0.0
 11
-2.20262178
 21
6.01714518
 31
0.0
  0
ARC
  5
11E
100
AcDbEntity
  8
0
 62
     7
100
AcDbCircle
 10
-3.07762178
 20
4.95648501
 30
0.0
 40
1.375
100
AcDbArc
 50
0.0
 51
50.47880364
  0
LINE
  5
11F
100
AcDbEntity
  8
0
 62
     7
100
AcDbLine
 10
-4.45262178
 20
13.22698053
 30
0.0
 11
-4.45262178
 21
13.17648501
 31
0.0
  0
LINE
  5
120
100
AcDbEntity
  8
0
 62
     7
100
AcDbLine
 10
-1.70262178
 20
13.22698053
 30
0.0
 11
-1.70262178
 21
13.17648501
 31
0.0
  0
LINE
  5
121
100
AcDbEntity
  8
0
 62
     7
100
AcDbLine
 10
-4.45262178
 20
4.97209212
 30
0.0
 11
-4.45262178
 21
4.24898948
 31
0.0
  0
LINE
  5
122
100
AcDbEntity
  8
0
 62
     7
100
AcDbLine
 10
-12.04662178
 20
4.97209212
 30
0.0
 11
-12.04662178
 21
4.24898948
 31
0.0
  0
LINE
  5
123
100
AcDbEntity
  8
0
 62
     7
100
AcDbLine
 10
-14.79662178
 20
13.22698053
 30
0.0
 11
-14.79662178
 21
13.17648501
 31
0.0
  0
LINE
  5
124
100
AcDbEntity
  8
0
 62
     7
100
AcDbLine
 10
-12.04662178
 20
13.22698053
 30
0.0
 11
-12.04662178
 21
13.17648501
 31
0.0
  0
ARC
  5
125
100
AcDbEntity
  8
0
 62
     7
100
AcDbCircle
 10
-13.42162178
 20
4.95648501
 30
0.0
 40
1.375
100
AcDbArc
 50
129.52119636
 51
180.0
  0
LINE
  5
126
100
AcDbEntity
  8
0
 62
     7
100
AcDbLine
 10
-14.29662178
 20
12.80048501
 30
0.0
 11
-14.29662178
 21
6.01714518
 31
0.0
  0
ARC
  5
127
100
AcDbEntity
  8
0
 62
     7
100
AcDbCircle
 10
-11.8587994
 20
4.96392167
 30
0.0
 40
0.188
100
AcDbArc
 50
68.0
 51
182.4908499
  0
LINE
  5
128
100
AcDbEntity
  8
0
 62
     7
100
AcDbLine
 10
-14.79662178
 20
4.98648501
 30
0.0
 11
-14.79662178
 21
4.24898948
 31
0.0
  0
LINE
  5
129
100
AcDbEntity
  8
0
 62
     7
100
AcDbLine
 10
-12.54662178
 20
12.80048501
 30
0.0
 11
-12.54662178
 21
12.49394456
 31
0.0
  0
ARC
  5
12A
100
AcDbEntity
  8
0
 62
     7
100
AcDbCircle
 10
-12.23462178
 20
13.17648501
 30
0.0
 40
0.188
100
AcDbArc
 50
270.0
 51
0.0
  0
ARC
  5
12B
100
AcDbEntity
  8
0
 62
     7
100
AcDbCircle
 10
-12.35862178
 20
12.80048501
 30
0.0
 40
0.188
100
AcDbArc
 50
90.0
 51
180.0
  0
ARC
  5
12C
100
AcDbEntity
  8
0
 62
     7
100
AcDbCircle
 10
-14.48462178
 20
12.80048501
 30
0.0
 40
0.188
100
AcDbArc
 50
0.0
 51
90.0
  0
ARC
  5
12D
100
AcDbEntity
  8
0
 62
     7
100
AcDbCircle
 10
-14.60862178
 20
13.17648501
 30
0.0
 40
0.188
100
AcDbArc
 50
180.0
 51
270.0
  0
ARC
  5
12E
100
AcDbEntity
  8
0
 62
     7
100
AcDbCircle
 10
-12.23462178
 20
12.49394456
 30
0.0
 40
0.312
100
AcDbArc
 50
180.0
 51
292.0
  0
POINT
  5
12F
100
AcDbEntity
  8
0
  6
BYBLOCK
 62
     7
100
AcDbPoint
 10
-14.29662178
 20
8.73798501
 30
0.0
  0
POINT
  5
130
100
AcDbEntity
  8
0
  6
BYBLOCK
 62
     7
100
AcDbPoint
 10
-14.29662178
 20
8.73798501
 30
0.0
  0
POINT
  5
131
100
AcDbEntity
  8
0
  6
BYBLOCK
 62
     7
100
AcDbPoint
 10
-14.29662178
 20
12.80048501
 30
0.0
  0
POINT
  5
132
100
AcDbEntity
  8
0
  6
BYBLOCK
 62
     7
100
AcDbPoint
 10
-14.29662178
 20
11.78786875
 30
0.0
  0
LINE
  5
133
100
AcDbEntity
  8
0
 62
     7
100
AcDbLine
 10
-12.27743865
 20
5.33582743
 30
0.0
 11
-11.49771059
 21
5.02079685
 31
0.0
  0
LINE
  5
134
100
AcDbEntity
  8
0
 62
     7
100
AcDbLine
 10
-12.23462178
 20
12.98848501
 30
0.0
 11
-14.60862178
 21
12.98848501
 31
0.0
  0
ARC
  5
135
100
AcDbEntity
  8
0
 62
     7
100
AcDbCircle
 10
-7.10862178
 20
8.73798501
 30
0.0
 40
6.188
100
AcDbArc
 50
146.64676031
 51
213.35323969
  0
LINE
  5
136
100
AcDbEntity
  8
0
 62
     7
100
AcDbLine
 10
-12.27743865
 20
12.14014258
 30
0.0
 11
-11.49771059
 21
12.45517316
 31
0.0
  0
LINE
  5
137
100
AcDbEntity
  8
0
 62
     7
100
AcDbLine
 10
-12.27743865
 20
12.14014258
 30
0.0
 11
-12.27743865
 21
5.33582743
 31
0.0
  0
LINE
  5
138
100
AcDbEntity
  8
0
 62
     7
100
AcDbLine
 10
-14.29662178
 20
6.01714518
 30
0.0
 11
-12.66635285
 21
6.01714518
 31
0.0
  0
ARC
  5
139
100
AcDbEntity
  8
0
 62
     7
100
AcDbCircle
 10
13.63366507
 20
1.55048501
 30
0.0
 40
0.125
100
AcDbArc
 50
270.0
 51
32.00545483
  0
ARC
  5
13A
100
AcDbEntity
  8
0
 62
     7
100
AcDbCircle
 10
15.32966035
 20
1.55048501
 30
0.0
 40
0.125
100
AcDbArc
 50
147.99454517
 51
270.0
  0
LINE
  5
13B
100
AcDbEntity
  8
0
 62
     7
100
AcDbLine
 10
12.23166271
 20
1.42548501
 30
0.0
 11
13.60666271
 21
2.08048501
 31
0.0
  0
LINE
  5
13C
100
AcDbEntity
  8
0
 62
     7
100
AcDbLine
 10
16.73166271
 20
1.42548501
 30
0.0
 11
15.35666271
 21
2.08048501
 31
0.0
  0
ARC
  5
13D
100
AcDbEntity
  8
0
 62
     7
100
AcDbCircle
 10
14.48166271
 20
2.08048501
 30
0.0
 40
0.875
100
AcDbArc
 50
180.0
 51
212.00545483
  0
LINE
  5
13E
100
AcDbEntity
  8
0
 62
     7
100
AcDbLine
 10
15.35666271
 20
2.08048501
 30
0.0
 11
15.35666271
 21
3.23848501
 31
0.0
  0
LINE
  5
13F
100
AcDbEntity
  8
0
 62
     7
100
AcDbLine
 10
13.60666271
 20
2.08048501
 30
0.0
 11
13.60566271
 21
3.23848501
 31
0.0
  0
ARC
  5
140
100
AcDbEntity
  8
0
 62
     7
100
AcDbCircle
 10
14.48166271
 20
2.08048501
 30
0.0
 40
0.875
100
AcDbArc
 50
327.99454517
 51
0.0
  0
ARC
  5
141
100
AcDbEntity
  8
0
 62
     7
100
AcDbCircle
 10
15.48166271
 20
3.23848501
 30
0.0
 40
0.125
100
AcDbArc
 50
90.0
 51
180.0
  0
ARC
  5
142
100
AcDbEntity
  8
0
 62
     7
100
AcDbCircle
 10
13.48066271
 20
3.23848501
 30
0.0
 40
0.125
100
AcDbArc
 50
0.0
 51
90.0
  0
ARC
  5
143
100
AcDbEntity
  8
0
 62
     7
100
AcDbCircle
 10
15.73166271
 20
3.48848501
 30
0.0
 40
0.125
100
AcDbArc
 50
270.0
 51
0.0
  0
ARC
  5
144
100
AcDbEntity
  8
0
 62
     7
100
AcDbCircle
 10
13.23166271
 20
3.48848501
 30
0.0
 40
0.125
100
AcDbArc
 50
180.0
 51
270.0
  0
LINE
  5
145
100
AcDbEntity
  8
0
 62
     7
100
AcDbLine
 10
15.85666271
 20
3.60198053
 30
0.0
 11
15.85666271
 21
3.48848501
 31
0.0
  0
LINE
  5
146
100
AcDbEntity
  8
0
 62
     7
100
AcDbLine
 10
13.10666271
 20
3.60198053
 30
0.0
 11
13.10666271
 21
3.48848501
 31
0.0
  0
LINE
  5
147
100
AcDbEntity
  8
0
 62
     7
100
AcDbLine
 10
15.73166271
 20
3.36348501
 30
0.0
 11
13.23166271
 21
3.36348501
 31
0.0
  0
LINE
  5
148
100
AcDbEntity
  8
0
 62
     7
100
AcDbLine
 10
17.98166271
 20
1.42548501
 30
0.0
 11
10.98166271
 21
1.42548501
 31
0.0
  0
LINE
  5
149
100
AcDbEntity
  8
0
 62
     7
100
AcDbLine
 10
10.98166271
 20
1.42548501
 30
0.0
 11
10.98166271
 21
1.11348501
 31
0.0
  0
LINE
  5
14A
100
AcDbEntity
  8
0
 62
     7
100
AcDbLine
 10
17.98166271
 20
1.42548501
 30
0.0
 11
17.98166271
 21
1.11348501
 31
0.0
  0
LINE
  5
14B
100
AcDbEntity
  8
0
 62
     7
100
AcDbLine
 10
17.98166271
 20
1.11348501
 30
0.0
 11
10.98166271
 21
1.11348501
 31
0.0
  0
LINE
  5
14C
100
AcDbEntity
  8
0
 62
     7
100
AcDbLine
 10
16.48166271
 20
2.26948501
 30
0.0
 11
16.48166271
 21
3.55957329
 31
0.0
  0
LINE
  5
14D
100
AcDbEntity
  8
0
 62
     7
100
AcDbLine
 10
16.38766271
 20
2.17548501
 30
0.0
 11
15.35666271
 21
2.17548501
 31
0.0
  0
ARC
  5
14E
100
AcDbEntity
  8
0
 62
     7
100
AcDbCircle
 10
14.48166271
 20
3.55048501
 30
0.0
 40
1.063
100
AcDbArc
 50
190.13203879
 51
214.52825482
  0
ARC
  5
14F
100
AcDbEntity
  8
0
 62
     7
100
AcDbCircle
 10
16.38766271
 20
2.26948501
 30
0.0
 40
0.094
100
AcDbArc
 50
270.0
 51
0.0
  0
LINE
  5
150
100
AcDbEntity
  8
0
 62
     7
100
AcDbLine
 10
13.29466271
 20
12.98848501
 30
0.0
 11
15.66866271
 21
12.98848501
 31
0.0
  0
ARC
  5
151
100
AcDbEntity
  8
0
 62
     7
100
AcDbCircle
 10
14.48166271
 20
8.73798501
 30
0.0
 40
3.40215757
100
AcDbArc
 50
104.903376
 51
248.76689216
  0
ARC
  5
152
100
AcDbEntity
  8
0
 62
     7
100
AcDbCircle
 10
14.48166271
 20
8.73798501
 30
0.0
 40
3.40215757
100
AcDbArc
 50
291.23310784
 51
75.096624
  0
LINE
  5
153
100
AcDbEntity
  8
0
 62
     7
100
AcDbLine
 10
13.60666271
 20
6.01714518
 30
0.0
 11
15.35666271
 21
6.01714518
 31
0.0
  0
ARC
  5
154
100
AcDbEntity
  8
0
 62
     7
100
AcDbCircle
 10
14.48166271
 20
8.73798501
 30
0.0
 40
4.438
100
AcDbArc
 50
358.38600277
 51
1.61399723
  0
LINE
  5
155
100
AcDbEntity
  8
0
 62
     7
100
AcDbLine
 10
15.35666271
 20
12.80048501
 30
0.0
 11
15.35666271
 21
6.01714518
 31
0.0
  0
LINE
  5
156
100
AcDbEntity
  8
0
 62
     7
100
AcDbLine
 10
13.60666271
 20
12.80048501
 30
0.0
 11
13.60666271
 21
6.01714518
 31
0.0
  0
ARC
  5
157
100
AcDbEntity
  8
0
 62
     7
100
AcDbCircle
 10
14.48166271
 20
4.95648501
 30
0.0
 40
1.375
100
AcDbArc
 50
129.52119636
 51
180.0
  0
LINE
  5
158
100
AcDbEntity
  8
0
 62
     7
100
AcDbLine
 10
13.10666271
 20
4.98648501
 30
0.0
 11
13.10666271
 21
4.24898948
 31
0.0
  0
ARC
  5
159
100
AcDbEntity
  8
0
 62
     7
100
AcDbCircle
 10
14.48166271
 20
4.95648501
 30
0.0
 40
1.375
100
AcDbArc
 50
0.0
 51
50.47880364
  0
LINE
  5
15A
100
AcDbEntity
  8
0
 62
     7
100
AcDbLine
 10
15.85666271
 20
4.98648501
 30
0.0
 11
15.85666271
 21
4.24898948
 31
0.0
  0
ARC
  5
15B
100
AcDbEntity
  8
0
 62
     7
100
AcDbCircle
 10
13.29466271
 20
13.17648501
 30
0.0
 40
0.188
100
AcDbArc
 50
180.0
 51
270.0
  0
ARC
  5
15C
100
AcDbEntity
  8
0
 62
     7
100
AcDbCircle
 10
13.41866271
 20
12.80048501
 30
0.0
 40
0.188
100
AcDbArc
 50
0.0
 51
90.0
  0
ARC
  5
15D
100
AcDbEntity
  8
0
 62
     7
100
AcDbCircle
 10
15.54466271
 20
12.80048501
 30
0.0
 40
0.188
100
AcDbArc
 50
90.0
 51
180.0
  0
ARC
  5
15E
100
AcDbEntity
  8
0
 62
     7
100
AcDbCircle
 10
15.66866271
 20
13.17648501
 30
0.0
 40
0.188
100
AcDbArc
 50
270.0
 51
0.0
  0
LINE
  5
15F
100
AcDbEntity
  8
0
 62
     7
100
AcDbLine
 10
13.10666271
 20
13.22698053
 30
0.0
 11
13.10666271
 21
13.17648501
 31
0.0
  0
LINE
  5
160
100
AcDbEntity
  8
0
 62
     7
100
AcDbLine
 10
15.85666271
 20
13.22698053
 30
0.0
 11
15.85666271
 21
13.17648501
 31
0.0
  0
ARC
  5
161
100
AcDbEntity
  8
0
 62
     7
100
AcDbCircle
 10
14.48166271
 20
8.73798501
 30
0.0
 40
4.438
100
AcDbArc
 50
178.38600277
 51
181.61399723
  0
ARC
  5
162
100
AcDbEntity
  8
0
 62
     7
100
AcDbCircle
 10
-7.68662178
 20
9.64498501
 30
0.0
 40
0.062
100
AcDbArc
 50
0.0
 51
90.0
  0
ARC
  5
163
100
AcDbEntity
  8
0
 62
     7
100
AcDbCircle
 10
-7.68662178
 20
7.83098501
 30
0.0
 40
0.062
100
AcDbArc
 50
270.0
 51
0.0
  0
ARC
  5
164
100
AcDbEntity
  8
0
 62
     7
100
AcDbCircle
 10
-8.81262178
 20
7.83098501
 30
0.0
 40
0.062
100
AcDbArc
 50
180.0
 51
270.0
  0
ARC
  5
165
100
AcDbEntity
  8
0
 62
     7
100
AcDbCircle
 10
-8.81262178
 20
9.64498501
 30
0.0
 40
0.062
100
AcDbArc
 50
90.0
 51
180.0
  0
LINE
  5
166
100
AcDbEntity
  8
0
 62
     7
100
AcDbLine
 10
-7.62462178
 20
7.83098501
 30
0.0
 11
-7.62462178
 21
9.64498501
 31
0.0
  0
LINE
  5
167
100
AcDbEntity
  8
0
 62
     7
100
AcDbLine
 10
-8.87462178
 20
7.83098501
 30
0.0
 11
-8.87462178
 21
9.64498501
 31
0.0
  0
LINE
  5
168
100
AcDbEntity
  8
0
 62
     7
100
AcDbLine
 10
-8.81262178
 20
9.70698501
 30
0.0
 11
-7.68662178
 21
9.70698501
 31
0.0
  0
LINE
  5
169
100
AcDbEntity
  8
0
 62
     7
100
AcDbLine
 10
-8.81262178
 20
7.76898501
 30
0.0
 11
-7.68662178
 21
7.76898501
 31
0.0
  0
LINE
  5
16A
100
AcDbEntity
  8
0
 62
     7
100
AcDbLine
 10
-9.12462178
 20
7.48798501
 30
0.0
 11
-9.06874656
 21
7.48798501
 31
0.0
  0
ARC
  5
16B
100
AcDbEntity
  8
0
 62
     7
100
AcDbCircle
 10
-9.06874656
 20
7.36298501
 30
0.0
 40
0.125
100
AcDbArc
 50
0.0
 51
90.0
  0
LINE
  5
16C
100
AcDbEntity
  8
0
 62
     7
100
AcDbLine
 10
-9.12462178
 20
7.98798501
 30
0.0
 11
-9.06874656
 21
7.98798501
 31
0.0
  0
ARC
  5
16D
100
AcDbEntity
  8
0
 62
     7
100
AcDbCircle
 10
-9.06874656
 20
8.11298501
 30
0.0
 40
0.125
100
AcDbArc
 50
270.0
 51
0.0
  0
LINE
  5
16E
100
AcDbEntity
  8
0
 62
     7
100
AcDbLine
 10
-9.12462178
 20
9.98798501
 30
0.0
 11
-9.06874656
 21
9.98798501
 31
0.0
  0
ARC
  5
16F
100
AcDbEntity
  8
0
 62
     7
100
AcDbCircle
 10
-9.06874656
 20
10.11298501
 30
0.0
 40
0.125
100
AcDbArc
 50
270.0
 51
0.0
  0
LINE
  5
170
100
AcDbEntity
  8
0
 62
     7
100
AcDbLine
 10
-9.12462178
 20
9.48798501
 30
0.0
 11
-9.06874656
 21
9.48798501
 31
0.0
  0
ARC
  5
171
100
AcDbEntity
  8
0
 62
     7
100
AcDbCircle
 10
-9.06874656
 20
9.36298501
 30
0.0
 40
0.125
100
AcDbArc
 50
0.0
 51
90.0
  0
ARC
  5
172
100
AcDbEntity
  8
0
 62
     7
100
AcDbCircle
 10
-9.12462178
 20
9.73798501
 30
0.0
 40
0.25
100
AcDbArc
 50
90.0
 51
270.0
  0
LINE
  5
173
100
AcDbEntity
  8
0
 62
     7
100
AcDbLine
 10
-9.12462178
 20
8.0915384
 30
0.0
 11
-9.12462178
 21
9.38443162
 31
0.0
  0
ARC
  5
174
100
AcDbEntity
  8
0
 62
     7
100
AcDbCircle
 10
-9.24962178
 20
9.38443162
 30
0.0
 40
0.125
100
AcDbArc
 50
0.0
 51
70.52877937
  0
ARC
  5
175
100
AcDbEntity
  8
0
 62
     7
100
AcDbCircle
 10
-7.24962178
 20
8.0915384
 30
0.0
 40
0.125
100
AcDbArc
 50
180.0
 51
250.52877937
  0
ARC
  5
176
100
AcDbEntity
  8
0
 62
     7
100
AcDbCircle
 10
-7.37462178
 20
7.73798501
 30
0.0
 40
0.25
100
AcDbArc
 50
270.0
 51
90.0
  0
ARC
  5
177
100
AcDbEntity
  8
0
 62
     7
100
AcDbCircle
 10
-7.43049699
 20
8.11298501
 30
0.0
 40
0.125
100
AcDbArc
 50
180.0
 51
270.0
  0
LINE
  5
178
100
AcDbEntity
  8
0
 62
     7
100
AcDbLine
 10
-7.37462178
 20
7.98798501
 30
0.0
 11
-7.43049699
 21
7.98798501
 31
0.0
  0
ARC
  5
179
100
AcDbEntity
  8
0
 62
     7
100
AcDbCircle
 10
-7.24962178
 20
10.0915384
 30
0.0
 40
0.125
100
AcDbArc
 50
180.0
 51
250.52877937
  0
ARC
  5
17A
100
AcDbEntity
  8
0
 62
     7
100
AcDbCircle
 10
-7.24962178
 20
9.38443162
 30
0.0
 40
0.125
100
AcDbArc
 50
109.47122063
 51
180.0
  0
ARC
  5
17B
100
AcDbEntity
  8
0
 62
     7
100
AcDbCircle
 10
-7.24962178
 20
7.38443162
 30
0.0
 40
0.125
100
AcDbArc
 50
109.47122063
 51
180.0
  0
ARC
  5
17C
100
AcDbEntity
  8
0
 62
     7
100
AcDbCircle
 10
-9.24962178
 20
7.38443162
 30
0.0
 40
0.125
100
AcDbArc
 50
0.0
 51
70.52877937
  0
ARC
  5
17D
100
AcDbEntity
  8
0
 62
     7
100
AcDbCircle
 10
-9.24962178
 20
8.0915384
 30
0.0
 40
0.125
100
AcDbArc
 50
289.47122063
 51
0.0
  0
ARC
  5
17E
100
AcDbEntity
  8
0
 62
     7
100
AcDbCircle
 10
-9.24962178
 20
10.0915384
 30
0.0
 40
0.125
100
AcDbArc
 50
289.47122063
 51
0.0
  0
POINT
  5
17F
100
AcDbEntity
  8
0
  6
BYBLOCK
 62
     7
100
AcDbPoint
 10
-9.12462178
 20
10.67598501
 30
0.0
  0
POINT
  5
180
100
AcDbEntity
  8
0
  6
BYBLOCK
 62
     7
100
AcDbPoint
 10
-7.37462178
 20
10.67598501
 30
0.0
  0
ARC
  5
181
100
AcDbEntity
  8
0
 62
     7
100
AcDbCircle
 10
-7.43662178
 20
6.79998501
 30
0.0
 40
0.062
100
AcDbArc
 50
270.0
 51
0.0
  0
ARC
  5
182
100
AcDbEntity
  8
0
 62
     7
100
AcDbCircle
 10
-9.06262178
 20
6.79998501
 30
0.0
 40
0.062
100
AcDbArc
 50
180.0
 51
270.0
  0
ARC
  5
183
100
AcDbEntity
  8
0
 62
     7
100
AcDbCircle
 10
-9.06262178
 20
10.67598501
 30
0.0
 40
0.062
100
AcDbArc
 50
90.0
 51
180.0
  0
ARC
  5
184
100
AcDbEntity
  8
0
 62
     7
100
AcDbCircle
 10
-7.43662178
 20
10.67598501
 30
0.0
 40
0.062
100
AcDbArc
 50
0.0
 51
90.0
  0
CIRCLE
  5
185
100
AcDbEntity
  8
0
 62
     7
100
AcDbCircle
 10
-7.37462178
 20
7.73798501
 30
0.0
 40
0.1405
  0
CIRCLE
  5
186
100
AcDbEntity
  8
0
 62
     7
100
AcDbCircle
 10
-7.37462178
 20
9.73798501
 30
0.0
 40
0.1405
  0
CIRCLE
  5
187
100
AcDbEntity
  8
0
 62
     7
100
AcDbCircle
 10
-9.12462178
 20
9.73798501
 30
0.0
 40
0.1405
  0
CIRCLE
  5
188
100
AcDbEntity
  8
0
 62
     7
100
AcDbCircle
 10
-9.12462178
 20
7.73798501
 30
0.0
 40
0.1405
  0
LINE
  5
189
100
AcDbEntity
  8
0
 62
     7
100
AcDbLine
 10
-7.37462178
 20
10.0915384
 30
0.0
 11
-7.37462178
 21
10.67598501
 31
0.0
  0
LINE
  5
18A
100
AcDbEntity
  8
0
 62
     7
100
AcDbLine
 10
-7.37462178
 20
8.0915384
 30
0.0
 11
-7.37462178
 21
9.38443162
 31
0.0
  0
ARC
  5
18B
100
AcDbEntity
  8
0
 62
     7
100
AcDbCircle
 10
-7.43049699
 20
7.36298501
 30
0.0
 40
0.125
100
AcDbArc
 50
90.0
 51
180.0
  0
LINE
  5
18C
100
AcDbEntity
  8
0
 62
     7
100
AcDbLine
 10
-7.37462178
 20
7.48798501
 30
0.0
 11
-7.43049699
 21
7.48798501
 31
0.0
  0
ARC
  5
18D
100
AcDbEntity
  8
0
 62
     7
100
AcDbCircle
 10
-7.43049699
 20
9.36298501
 30
0.0
 40
0.125
100
AcDbArc
 50
90.0
 51
180.0
  0
LINE
  5
18E
100
AcDbEntity
  8
0
 62
     7
100
AcDbLine
 10
-7.37462178
 20
9.48798501
 30
0.0
 11
-7.43049699
 21
9.48798501
 31
0.0
  0
ARC
  5
18F
100
AcDbEntity
  8
0
 62
     7
100
AcDbCircle
 10
-7.37462178
 20
9.73798501
 30
0.0
 40
0.25
100
AcDbArc
 50
270.0
 51
90.0
  0
LINE
  5
190
100
AcDbEntity
  8
0
 62
     7
100
AcDbLine
 10
-7.37462178
 20
9.98798501
 30
0.0
 11
-7.43049699
 21
9.98798501
 31
0.0
  0
ARC
  5
191
100
AcDbEntity
  8
0
 62
     7
100
AcDbCircle
 10
-7.43049699
 20
10.11298501
 30
0.0
 40
0.125
100
AcDbArc
 50
180.0
 51
270.0
  0
LINE
  5
192
100
AcDbEntity
  8
0
 62
     7
100
AcDbLine
 10
-9.12462178
 20
10.0915384
 30
0.0
 11
-9.12462178
 21
10.67598501
 31
0.0
  0
ARC
  5
193
100
AcDbEntity
  8
0
 62
     7
100
AcDbCircle
 10
-9.12462178
 20
7.73798501
 30
0.0
 40
0.25
100
AcDbArc
 50
90.0
 51
270.0
  0
LINE
  5
194
100
AcDbEntity
  8
0
 62
     7
100
AcDbLine
 10
-9.06262178
 20
10.73798501
 30
0.0
 11
-7.43662178
 21
10.73798501
 31
0.0
  0
LINE
  5
195
100
AcDbEntity
  8
0
 62
     7
100
AcDbLine
 10
-9.12462178
 20
6.79998501
 30
0.0
 11
-9.12462178
 21
7.38443162
 31
0.0
  0
LINE
  5
196
100
AcDbEntity
  8
0
 62
     7
100
AcDbLine
 10
-7.37462178
 20
6.79998501
 30
0.0
 11
-7.37462178
 21
7.38443162
 31
0.0
  0
LINE
  5
197
100
AcDbEntity
  8
0
 62
     7
100
AcDbLine
 10
-9.06262178
 20
6.73798501
 30
0.0
 11
-7.43662178
 21
6.73798501
 31
0.0
  0
ARC
  5
198
100
AcDbEntity
  8
0
 62
     7
100
AcDbCircle
 10
-11.00712178
 20
13.14610393
 30
0.0
 40
0.344
100
AcDbArc
 50
20.0
 51
160.0
  0
LINE
  5
199
100
AcDbEntity
  8
0
 62
     7
100
AcDbLine
 10
-10.68386752
 20
13.26375886
 30
0.0
 11
-10.51653297
 21
12.80401097
 31
0.0
  0
LINE
  5
19A
100
AcDbEntity
  8
0
 62
     7
100
AcDbLine
 10
-11.33037604
 20
13.26375886
 30
0.0
 11
-11.49771059
 21
12.80401097
 31
0.0
  0
LINE
  5
19B
100
AcDbEntity
  8
0
 62
     7
100
AcDbLine
 10
-10.73163105
 20
9.55098501
 30
0.0
 11
-11.28261251
 21
9.55098501
 31
0.0
  0
LINE
  5
19C
100
AcDbEntity
  8
0
 62
     7
100
AcDbLine
 10
-11.49771059
 20
8.89404329
 30
0.0
 11
-11.34650844
 21
9.45833739
 31
0.0
  0
LINE
  5
19D
100
AcDbEntity
  8
0
 62
     7
100
AcDbLine
 10
-10.51653297
 20
8.89404329
 30
0.0
 11
-10.66773512
 21
9.45833739
 31
0.0
  0
ARC
  5
19E
100
AcDbEntity
  8
0
 62
     7
100
AcDbCircle
 10
-10.78847584
 20
9.42598501
 30
0.0
 40
0.125
100
AcDbArc
 50
15.0
 51
90.0
  0
ARC
  5
19F
100
AcDbEntity
  8
0
 62
     7
100
AcDbCircle
 10
-11.22576771
 20
9.42598501
 30
0.0
 40
0.125
100
AcDbArc
 50
90.0
 51
165.0
  0
LINE
  5
1A0
100
AcDbEntity
  8
0
 62
     7
100
AcDbLine
 10
-11.38179949
 20
8.86298501
 30
0.0
 11
-11.24152028
 21
9.38651415
 31
0.0
  0
LINE
  5
1A1
100
AcDbEntity
  8
0
 62
     7
100
AcDbLine
 10
-10.83067883
 20
9.43098501
 30
0.0
 11
-11.18356473
 21
9.43098501
 31
0.0
  0
LINE
  5
1A2
100
AcDbEntity
  8
0
 62
     7
100
AcDbLine
 10
-10.63244407
 20
8.86298501
 30
0.0
 11
-10.77272328
 21
9.38651415
 31
0.0
  0
ARC
  5
1A3
100
AcDbEntity
  8
0
 62
     7
100
AcDbCircle
 10
-11.18356473
 20
9.37098501
 30
0.0
 40
0.06
100
AcDbArc
 50
90.0
 51
165.0
  0
ARC
  5
1A4
100
AcDbEntity
  8
0
 62
     7
100
AcDbCircle
 10
-10.83067883
 20
9.37098501
 30
0.0
 40
0.06
100
AcDbArc
 50
15.0
 51
90.0
  0
LINE
  5
1A5
100
AcDbEntity
  8
0
 62
     7
100
AcDbLine
 10
-10.63244407
 20
8.86298501
 30
0.0
 11
-10.51653297
 21
8.89404329
 31
0.0
  0
LINE
  5
1A6
100
AcDbEntity
  8
0
 62
     7
100
AcDbLine
 10
-11.38179949
 20
8.86298501
 30
0.0
 11
-11.49771059
 21
8.89404329
 31
0.0
  0
LINE
  5
1A7
100
AcDbEntity
  8
0
 62
     7
100
AcDbLine
 10
-10.51653297
 20
8.89404329
 30
0.0
 11
-10.51653297
 21
12.80401097
 31
0.0
  0
LINE
  5
1A8
100
AcDbEntity
  8
0
 62
     7
100
AcDbLine
 10
-11.49771059
 20
8.89404329
 30
0.0
 11
-11.49771059
 21
12.80401097
 31
0.0
  0
ARC
  5
1A9
100
AcDbEntity
  8
0
 62
     7
100
AcDbCircle
 10
-11.00712178
 20
4.32986608
 30
0.0
 40
0.344
100
AcDbArc
 50
200.0
 51
340.0
  0
LINE
  5
1AA
100
AcDbEntity
  8
0
 62
     7
100
AcDbLine
 10
-11.33037604
 20
4.21221115
 30
0.0
 11
-11.49771059
 21
4.67195904
 31
0.0
  0
LINE
  5
1AB
100
AcDbEntity
  8
0
 62
     7
100
AcDbLine
 10
-10.68386752
 20
4.21221115
 30
0.0
 11
-10.51653297
 21
4.67195904
 31
0.0
  0
LINE
  5
1AC
100
AcDbEntity
  8
0
 62
     7
100
AcDbLine
 10
-10.51653297
 20
8.58192672
 30
0.0
 11
-10.51653297
 21
4.67195904
 31
0.0
  0
LINE
  5
1AD
100
AcDbEntity
  8
0
 62
     7
100
AcDbLine
 10
-11.49771059
 20
8.58192672
 30
0.0
 11
-11.49771059
 21
4.67195904
 31
0.0
  0
LINE
  5
1AE
100
AcDbEntity
  8
0
 62
     7
100
AcDbLine
 10
-11.49771059
 20
8.58192672
 30
0.0
 11
-11.34650844
 21
8.01763263
 31
0.0
  0
ARC
  5
1AF
100
AcDbEntity
  8
0
 62
     7
100
AcDbCircle
 10
-11.22576771
 20
8.04998501
 30
0.0
 40
0.125
100
AcDbArc
 50
195.0
 51
270.0
  0
LINE
  5
1B0
100
AcDbEntity
  8
0
 62
     7
100
AcDbLine
 10
-10.73163105
 20
7.92498501
 30
0.0
 11
-11.28261251
 21
7.92498501
 31
0.0
  0
ARC
  5
1B1
100
AcDbEntity
  8
0
 62
     7
100
AcDbCircle
 10
-10.78847584
 20
8.04998501
 30
0.0
 40
0.125
100
AcDbArc
 50
270.0
 51
345.0
  0
LINE
  5
1B2
100
AcDbEntity
  8
0
 62
     7
100
AcDbLine
 10
-10.51653297
 20
8.58192672
 30
0.0
 11
-10.66773512
 21
8.01763263
 31
0.0
  0
LINE
  5
1B3
100
AcDbEntity
  8
0
 62
     7
100
AcDbLine
 10
-10.63244407
 20
8.61298501
 30
0.0
 11
-10.77272328
 21
8.08945586
 31
0.0
  0
LINE
  5
1B4
100
AcDbEntity
  8
0
 62
     7
100
AcDbLine
 10
-10.83067883
 20
8.04498501
 30
0.0
 11
-11.18356473
 21
8.04498501
 31
0.0
  0
LINE
  5
1B5
100
AcDbEntity
  8
0
 62
     7
100
AcDbLine
 10
-11.38179949
 20
8.61298501
 30
0.0
 11
-11.24152028
 21
8.08945586
 31
0.0
  0
ARC
  5
1B6
100
AcDbEntity
  8
0
 62
     7
100
AcDbCircle
 10
-10.83067883
 20
8.10498501
 30
0.0
 40
0.06
100
AcDbArc
 50
270.0
 51
345.0
  0
ARC
  5
1B7
100
AcDbEntity
  8
0
 62
     7
100
AcDbCircle
 10
-11.18356473
 20
8.10498501
 30
0.0
 40
0.06
100
AcDbArc
 50
195.0
 51
270.0
  0
LINE
  5
1B8
100
AcDbEntity
  8
0
 62
     7
100
AcDbLine
 10
-10.63244407
 20
8.61298501
 30
0.0
 11
-10.51653297
 21
8.58192672
 31
0.0
  0
LINE
  5
1B9
100
AcDbEntity
  8
0
 62
     7
100
AcDbLine
 10
-11.38179949
 20
8.61298501
 30
0.0
 11
-11.49771059
 21
8.58192672
 31
0.0
  0
LINE
  5
1BA
100
AcDbEntity
  8
0
 62
     7
100
AcDbLine
 10
-11.13212178
 20
8.04498501
 30
0.0
 11
-11.13212178
 21
9.43098501
 31
0.0
  0
LINE
  5
1BB
100
AcDbEntity
  8
0
 62
     7
100
AcDbLine
 10
-10.88212178
 20
8.04498501
 30
0.0
 11
-10.88212178
 21
9.43098501
 31
0.0
  0
ARC
  5
1BC
100
AcDbEntity
  8
0
 62
     7
100
AcDbCircle
 10
-11.00712178
 20
8.13986184
 30
0.0
 40
0.34938117
100
AcDbArc
 50
217.95346362
 51
322.04653638
  0
LINE
  5
1BD
100
AcDbEntity
  8
0
 62
     7
100
AcDbLine
 10
-10.73163105
 20
9.55098501
 30
0.0
 11
-10.73163105
 21
9.80098501
 31
0.0
  0
LINE
  5
1BE
100
AcDbEntity
  8
0
 62
     7
100
AcDbLine
 10
-11.28261251
 20
9.55098501
 30
0.0
 11
-11.28261251
 21
9.80098501
 31
0.0
  0
LINE
  5
1BF
100
AcDbEntity
  8
0
 62
     7
100
AcDbLine
 10
-10.73163105
 20
9.80098501
 30
0.0
 11
-11.28261251
 21
9.80098501
 31
0.0
  0
LINE
  5
1C0
100
AcDbEntity
  8
0
 62
     7
100
AcDbLine
 10
-10.88212178
 20
9.80098501
 30
0.0
 11
-10.88212178
 21
10.05098501
 31
0.0
  0
LINE
  5
1C1
100
AcDbEntity
  8
0
 62
     7
100
AcDbLine
 10
-11.13212178
 20
9.80098501
 30
0.0
 11
-11.13212178
 21
10.05098501
 31
0.0
  0
LINE
  5
1C2
100
AcDbEntity
  8
0
 62
     7
100
AcDbLine
 10
-10.88212178
 20
10.05098501
 30
0.0
 11
-11.13212178
 21
10.05098501
 31
0.0
  0
LINE
  5
1C3
100
AcDbEntity
  8
0
 62
     7
100
AcDbLine
 10
-5.61712178
 20
10.05098501
 30
0.0
 11
-5.36712178
 21
10.05098501
 31
0.0
  0
LINE
  5
1C4
100
AcDbEntity
  8
0
 62
     7
100
AcDbLine
 10
-5.36712178
 20
9.80098501
 30
0.0
 11
-5.36712178
 21
10.05098501
 31
0.0
  0
LINE
  5
1C5
100
AcDbEntity
  8
0
 62
     7
100
AcDbLine
 10
-5.61712178
 20
9.80098501
 30
0.0
 11
-5.61712178
 21
10.05098501
 31
0.0
  0
LINE
  5
1C6
100
AcDbEntity
  8
0
 62
     7
100
AcDbLine
 10
-5.76761251
 20
9.80098501
 30
0.0
 11
-5.21663105
 21
9.80098501
 31
0.0
  0
LINE
  5
1C7
100
AcDbEntity
  8
0
 62
     7
100
AcDbLine
 10
-5.21663105
 20
9.55098501
 30
0.0
 11
-5.21663105
 21
9.80098501
 31
0.0
  0
LINE
  5
1C8
100
AcDbEntity
  8
0
 62
     7
100
AcDbLine
 10
-5.76761251
 20
9.55098501
 30
0.0
 11
-5.76761251
 21
9.80098501
 31
0.0
  0
ARC
  5
1C9
100
AcDbEntity
  8
0
 62
     7
100
AcDbCircle
 10
-5.49212178
 20
8.13986184
 30
0.0
 40
0.34938117
100
AcDbArc
 50
217.95346362
 51
322.04653638
  0
LINE
  5
1CA
100
AcDbEntity
  8
0
 62
     7
100
AcDbLine
 10
-5.61712178
 20
8.04498501
 30
0.0
 11
-5.61712178
 21
9.43098501
 31
0.0
  0
LINE
  5
1CB
100
AcDbEntity
  8
0
 62
     7
100
AcDbLine
 10
-5.36712178
 20
8.04498501
 30
0.0
 11
-5.36712178
 21
9.43098501
 31
0.0
  0
LINE
  5
1CC
100
AcDbEntity
  8
0
 62
     7
100
AcDbLine
 10
-5.11744407
 20
8.61298501
 30
0.0
 11
-5.00153297
 21
8.58192672
 31
0.0
  0
LINE
  5
1CD
100
AcDbEntity
  8
0
 62
     7
100
AcDbLine
 10
-5.86679949
 20
8.61298501
 30
0.0
 11
-5.98271059
 21
8.58192672
 31
0.0
  0
ARC
  5
1CE
100
AcDbEntity
  8
0
 62
     7
100
AcDbCircle
 10
-5.31567883
 20
8.10498501
 30
0.0
 40
0.06
100
AcDbArc
 50
270.0
 51
345.0
  0
ARC
  5
1CF
100
AcDbEntity
  8
0
 62
     7
100
AcDbCircle
 10
-5.66856473
 20
8.10498501
 30
0.0
 40
0.06
100
AcDbArc
 50
195.0
 51
270.0
  0
LINE
  5
1D0
100
AcDbEntity
  8
0
 62
     7
100
AcDbLine
 10
-5.11744407
 20
8.61298501
 30
0.0
 11
-5.25772328
 21
8.08945586
 31
0.0
  0
LINE
  5
1D1
100
AcDbEntity
  8
0
 62
     7
100
AcDbLine
 10
-5.66856473
 20
8.04498501
 30
0.0
 11
-5.31567883
 21
8.04498501
 31
0.0
  0
LINE
  5
1D2
100
AcDbEntity
  8
0
 62
     7
100
AcDbLine
 10
-5.86679949
 20
8.61298501
 30
0.0
 11
-5.72652028
 21
8.08945586
 31
0.0
  0
LINE
  5
1D3
100
AcDbEntity
  8
0
 62
     7
100
AcDbLine
 10
-5.98271059
 20
8.58192672
 30
0.0
 11
-5.83150844
 21
8.01763263
 31
0.0
  0
ARC
  5
1D4
100
AcDbEntity
  8
0
 62
     7
100
AcDbCircle
 10
-5.71076771
 20
8.04998501
 30
0.0
 40
0.125
100
AcDbArc
 50
195.0
 51
270.0
  0
LINE
  5
1D5
100
AcDbEntity
  8
0
 62
     7
100
AcDbLine
 10
-5.76761251
 20
7.92498501
 30
0.0
 11
-5.21663105
 21
7.92498501
 31
0.0
  0
ARC
  5
1D6
100
AcDbEntity
  8
0
 62
     7
100
AcDbCircle
 10
-5.27347584
 20
8.04998501
 30
0.0
 40
0.125
100
AcDbArc
 50
270.0
 51
345.0
  0
LINE
  5
1D7
100
AcDbEntity
  8
0
 62
     7
100
AcDbLine
 10
-5.00153297
 20
8.58192672
 30
0.0
 11
-5.15273512
 21
8.01763263
 31
0.0
  0
LINE
  5
1D8
100
AcDbEntity
  8
0
 62
     7
100
AcDbLine
 10
-5.00153297
 20
8.58192672
 30
0.0
 11
-5.00153297
 21
4.67195904
 31
0.0
  0
LINE
  5
1D9
100
AcDbEntity
  8
0
 62
     7
100
AcDbLine
 10
-5.98271059
 20
8.58192672
 30
0.0
 11
-5.98271059
 21
4.67195904
 31
0.0
  0
LINE
  5
1DA
100
AcDbEntity
  8
0
 62
     7
100
AcDbLine
 10
-5.81537604
 20
4.21221115
 30
0.0
 11
-5.98271059
 21
4.67195904
 31
0.0
  0
LINE
  5
1DB
100
AcDbEntity
  8
0
 62
     7
100
AcDbLine
 10
-5.16886752
 20
4.21221115
 30
0.0
 11
-5.00153297
 21
4.67195904
 31
0.0
  0
ARC
  5
1DC
100
AcDbEntity
  8
0
 62
     7
100
AcDbCircle
 10
-5.49212178
 20
4.32986608
 30
0.0
 40
0.344
100
AcDbArc
 50
200.0
 51
340.0
  0
LINE
  5
1DD
100
AcDbEntity
  8
0
 62
     7
100
AcDbLine
 10
-5.00153297
 20
8.89404329
 30
0.0
 11
-5.00153297
 21
12.80401097
 31
0.0
  0
LINE
  5
1DE
100
AcDbEntity
  8
0
 62
     7
100
AcDbLine
 10
-5.98271059
 20
8.89404329
 30
0.0
 11
-5.98271059
 21
12.80401097
 31
0.0
  0
LINE
  5
1DF
100
AcDbEntity
  8
0
 62
     7
100
AcDbLine
 10
-5.11744407
 20
8.86298501
 30
0.0
 11
-5.00153297
 21
8.89404329
 31
0.0
  0
LINE
  5
1E0
100
AcDbEntity
  8
0
 62
     7
100
AcDbLine
 10
-5.86679949
 20
8.86298501
 30
0.0
 11
-5.98271059
 21
8.89404329
 31
0.0
  0
ARC
  5
1E1
100
AcDbEntity
  8
0
 62
     7
100
AcDbCircle
 10
-5.66856473
 20
9.37098501
 30
0.0
 40
0.06
100
AcDbArc
 50
90.0
 51
165.0
  0
ARC
  5
1E2
100
AcDbEntity
  8
0
 62
     7
100
AcDbCircle
 10
-5.31567883
 20
9.37098501
 30
0.0
 40
0.06
100
AcDbArc
 50
15.0
 51
90.0
  0
LINE
  5
1E3
100
AcDbEntity
  8
0
 62
     7
100
AcDbLine
 10
-5.86679949
 20
8.86298501
 30
0.0
 11
-5.72652028
 21
9.38651415
 31
0.0
  0
LINE
  5
1E4
100
AcDbEntity
  8
0
 62
     7
100
AcDbLine
 10
-5.66856473
 20
9.43098501
 30
0.0
 11
-5.31567883
 21
9.43098501
 31
0.0
  0
LINE
  5
1E5
100
AcDbEntity
  8
0
 62
     7
100
AcDbLine
 10
-5.11744407
 20
8.86298501
 30
0.0
 11
-5.25772328
 21
9.38651415
 31
0.0
  0
ARC
  5
1E6
100
AcDbEntity
  8
0
 62
     7
100
AcDbCircle
 10
-5.27347584
 20
9.42598501
 30
0.0
 40
0.125
100
AcDbArc
 50
15.0
 51
90.0
  0
ARC
  5
1E7
100
AcDbEntity
  8
0
 62
     7
100
AcDbCircle
 10
-5.71076771
 20
9.42598501
 30
0.0
 40
0.125
100
AcDbArc
 50
90.0
 51
165.0
  0
LINE
  5
1E8
100
AcDbEntity
  8
0
 62
     7
100
AcDbLine
 10
-5.98271059
 20
8.89404329
 30
0.0
 11
-5.83150844
 21
9.45833739
 31
0.0
  0
LINE
  5
1E9
100
AcDbEntity
  8
0
 62
     7
100
AcDbLine
 10
-5.00153297
 20
8.89404329
 30
0.0
 11
-5.15273512
 21
9.45833739
 31
0.0
  0
LINE
  5
1EA
100
AcDbEntity
  8
0
 62
     7
100
AcDbLine
 10
-5.76761251
 20
9.55098501
 30
0.0
 11
-5.21663105
 21
9.55098501
 31
0.0
  0
LINE
  5
1EB
100
AcDbEntity
  8
0
 62
     7
100
AcDbLine
 10
-5.16886752
 20
13.26375886
 30
0.0
 11
-5.00153297
 21
12.80401097
 31
0.0
  0
LINE
  5
1EC
100
AcDbEntity
  8
0
 62
     7
100
AcDbLine
 10
-5.81537604
 20
13.26375886
 30
0.0
 11
-5.98271059
 21
12.80401097
 31
0.0
  0
ARC
  5
1ED
100
AcDbEntity
  8
0
 62
     7
100
AcDbCircle
 10
-5.49212178
 20
13.14610393
 30
0.0
 40
0.344
100
AcDbArc
 50
20.0
 51
160.0
  0
LINE
  5
1EE
100
AcDbEntity
  8
0
 62
     7
100
AcDbLine
 10
-4.88340712
 20
13.75627769
 30
0.0
 11
-4.55999662
 21
13.87398948
 31
0.0
  0
LINE
  5
1EF
100
AcDbEntity
  8
0
 62
     7
100
AcDbLine
 10
-4.88340712
 20
13.34469232
 30
0.0
 11
-4.55999662
 21
13.22698053
 31
0.0
  0
ARC
  5
1F0
100
AcDbEntity
  8
0
 62
     7
100
AcDbCircle
 10
-4.80850471
 20
13.55048501
 30
0.0
 40
0.219
100
AcDbArc
 50
110.0
 51
250.0
  0
ARC
  5
1F1
100
AcDbEntity
  8
0
 62
     7
100
AcDbCircle
 10
-13.5526509
 20
10.5937572
 30
0.0
 40
5.01442417
100
AcDbArc
 50
77.52016566
 51
98.71138506
  0
ARC
  5
1F2
100
AcDbEntity
  8
0
 62
     7
100
AcDbCircle
 10
-2.94659266
 20
10.5937572
 30
0.0
 40
5.01442417
100
AcDbArc
 50
81.28861494
 51
102.47983434
  0
ARC
  5
1F3
100
AcDbEntity
  8
0
 62
     7
100
AcDbCircle
 10
-11.38826761
 20
15.87618572
 30
0.0
 40
2.54198625
100
AcDbArc
 50
17.64373652
 51
35.55513875
  0
LINE
  5
1F4
100
AcDbEntity
  8
0
 62
     7
100
AcDbLine
 10
-8.93762178
 20
16.55148501
 30
0.0
 11
-7.56162178
 21
16.55148501
 31
0.0
  0
ARC
  5
1F5
100
AcDbEntity
  8
0
 62
     7
100
AcDbCircle
 10
-8.18244274
 20
17.62661865
 30
0.0
 40
1.31385225
100
AcDbArc
 50
234.91561124
 51
267.06911168
  0
ARC
  5
1F6
100
AcDbEntity
  8
0
 62
     7
100
AcDbCircle
 10
-8.31680081
 20
17.62661865
 30
0.0
 40
1.31385225
100
AcDbArc
 50
272.93088832
 51
305.08438876
  0
LINE
  5
1F7
100
AcDbEntity
  8
0
 62
     7
100
AcDbLine
 10
-9.24962178
 20
17.86448501
 30
0.0
 11
-7.24962178
 21
17.86448501
 31
0.0
  0
LINE
  5
1F8
100
AcDbEntity
  8
0
 62
     7
100
AcDbLine
 10
-12.23629482
 20
15.67548501
 30
0.0
 11
-4.26294874
 21
15.67548501
 31
0.0
  0
ARC
  5
1F9
100
AcDbEntity
  8
0
 62
     7
100
AcDbCircle
 10
-5.11097595
 20
15.87618572
 30
0.0
 40
2.54198625
100
AcDbArc
 50
144.44486125
 51
162.35626348
  0
ARC
  5
1FA
100
AcDbEntity
  8
0
 62
     7
100
AcDbCircle
 10
-6.99962178
 20
17.55148501
 30
0.0
 40
0.125
100
AcDbArc
 50
180.0
 51
270.0
  0
ARC
  5
1FB
100
AcDbEntity
  8
0
 62
     7
100
AcDbCircle
 10
-7.24962178
 20
17.73948501
 30
0.0
 40
0.125
100
AcDbArc
 50
0.0
 51
90.0
  0
ARC
  5
1FC
100
AcDbEntity
  8
0
 62
     7
100
AcDbCircle
 10
-9.24962178
 20
17.73948501
 30
0.0
 40
0.125
100
AcDbArc
 50
90.0
 51
180.0
  0
ARC
  5
1FD
100
AcDbEntity
  8
0
 62
     7
100
AcDbCircle
 10
-9.49962178
 20
17.55148501
 30
0.0
 40
0.125
100
AcDbArc
 50
270.0
 51
0.0
  0
LINE
  5
1FE
100
AcDbEntity
  8
0
 62
     7
100
AcDbLine
 10
-6.99962178
 20
17.42648501
 30
0.0
 11
-4.26294874
 21
17.42648501
 31
0.0
  0
LINE
  5
1FF
100
AcDbEntity
  8
0
 62
     7
100
AcDbLine
 10
-7.12462178
 20
17.73948501
 30
0.0
 11
-7.12462178
 21
17.55148501
 31
0.0
  0
LINE
  5
200
100
AcDbEntity
  8
0
 62
     7
100
AcDbLine
 10
-9.37462178
 20
17.73948501
 30
0.0
 11
-9.37462178
 21
17.55148501
 31
0.0
  0
ARC
  5
201
100
AcDbEntity
  8
0
 62
     7
100
AcDbCircle
 10
-4.26294874
 20
15.26948501
 30
0.0
 40
2.157
100
AcDbArc
 50
7.20677446
 51
90.0
  0
LINE
  5
202
100
AcDbEntity
  8
0
 62
     7
100
AcDbLine
 10
-12.23629482
 20
17.42648501
 30
0.0
 11
-9.49962178
 21
17.42648501
 31
0.0
  0
ARC
  5
203
100
AcDbEntity
  8
0
 62
     7
100
AcDbCircle
 10
-12.23629482
 20
15.26948501
 30
0.0
 40
2.157
100
AcDbArc
 50
90.0
 51
172.79322554
  0
ARC
  5
204
100
AcDbEntity
  8
0
 62
     7
100
AcDbCircle
 10
-4.26294874
 20
15.51948501
 30
0.0
 40
0.156
100
AcDbArc
 50
320.73414022
 51
90.0
  0
ARC
  5
205
100
AcDbEntity
  8
0
 62
     7
100
AcDbCircle
 10
-12.23629482
 20
15.51948501
 30
0.0
 40
0.156
100
AcDbArc
 50
90.0
 51
219.26585978
  0
ARC
  5
206
100
AcDbEntity
  8
0
 62
     7
100
AcDbCircle
 10
-13.42162178
 20
14.55048501
 30
0.0
 40
1.375
100
AcDbArc
 50
0.0
 51
39.26585978
  0
LINE
  5
207
100
AcDbEntity
  8
0
 62
     7
100
AcDbLine
 10
-4.45262178
 20
13.87398948
 30
0.0
 11
-4.45262178
 21
14.55048501
 31
0.0
  0
LINE
  5
208
100
AcDbEntity
  8
0
 62
     7
100
AcDbLine
 10
-1.70262178
 20
13.87398948
 30
0.0
 11
-1.70262178
 21
14.55048501
 31
0.0
  0
ARC
  5
209
100
AcDbEntity
  8
0
 62
     7
100
AcDbCircle
 10
-3.07762178
 20
14.55048501
 30
0.0
 40
1.375
100
AcDbArc
 50
0.0
 51
46.03027611
  0
ARC
  5
20A
100
AcDbEntity
  8
0
 62
     7
100
AcDbCircle
 10
-3.07762178
 20
14.55048501
 30
0.0
 40
1.375
100
AcDbArc
 50
140.73414022
 51
180.0
  0
ARC
  5
20B
100
AcDbEntity
  8
0
 62
     7
100
AcDbCircle
 10
-13.42162178
 20
14.55048501
 30
0.0
 40
1.375
100
AcDbArc
 50
133.96972389
 51
180.0
  0
LINE
  5
20C
100
AcDbEntity
  8
0
 62
     7
100
AcDbLine
 10
-12.04662178
 20
13.87398948
 30
0.0
 11
-12.04662178
 21
14.55048501
 31
0.0
  0
LINE
  5
20D
100
AcDbEntity
  8
0
 62
     7
100
AcDbLine
 10
-14.79662178
 20
13.87398948
 30
0.0
 11
-14.79662178
 21
14.55048501
 31
0.0
  0
LINE
  5
20E
100
AcDbEntity
  8
0
 62
     7
100
AcDbLine
 10
-3.60997416
 20
13.87883526
 30
0.0
 11
-3.22720959
 21
13.98139672
 31
0.0
  0
LINE
  5
20F
100
AcDbEntity
  8
0
 62
     7
100
AcDbLine
 10
-3.60997416
 20
13.22213475
 30
0.0
 11
-3.22720959
 21
13.11957329
 31
0.0
  0
LINE
  5
210
100
AcDbEntity
  8
0
 62
     7
100
AcDbLine
 10
-3.70262178
 20
13.75809454
 30
0.0
 11
-3.70262178
 21
13.34287548
 31
0.0
  0
LINE
  5
211
100
AcDbEntity
  8
0
 62
     7
100
AcDbLine
 10
-3.56315092
 20
13.30793974
 30
0.0
 11
-3.20262178
 21
13.21133624
 31
0.0
  0
LINE
  5
212
100
AcDbEntity
  8
0
 62
     7
100
AcDbLine
 10
-3.60762178
 20
13.73507473
 30
0.0
 11
-3.60762178
 21
13.36589529
 31
0.0
  0
LINE
  5
213
100
AcDbEntity
  8
0
 62
     7
100
AcDbLine
 10
-3.56315092
 20
13.79303028
 30
0.0
 11
-3.20262178
 21
13.88963377
 31
0.0
  0
LINE
  5
214
100
AcDbEntity
  8
0
 62
     7
100
AcDbLine
 10
-3.20262178
 20
13.88963377
 30
0.0
 11
-3.22720959
 21
13.98139672
 31
0.0
  0
LINE
  5
215
100
AcDbEntity
  8
0
 62
     7
100
AcDbLine
 10
-3.20262178
 20
13.21133624
 30
0.0
 11
-3.22720959
 21
13.11957329
 31
0.0
  0
ARC
  5
216
100
AcDbEntity
  8
0
 62
     7
100
AcDbCircle
 10
-3.57762178
 20
13.34287548
 30
0.0
 40
0.125
100
AcDbArc
 50
180.0
 51
255.0
  0
ARC
  5
217
100
AcDbEntity
  8
0
 62
     7
100
AcDbCircle
 10
-3.57762178
 20
13.75809454
 30
0.0
 40
0.125
100
AcDbArc
 50
105.0
 51
180.0
  0
ARC
  5
218
100
AcDbEntity
  8
0
 62
     7
100
AcDbCircle
 10
-3.54762178
 20
13.36589529
 30
0.0
 40
0.06
100
AcDbArc
 50
180.0
 51
255.0
  0
ARC
  5
219
100
AcDbEntity
  8
0
 62
     7
100
AcDbCircle
 10
-3.54762178
 20
13.73507473
 30
0.0
 40
0.06
100
AcDbArc
 50
105.0
 51
180.0
  0
LINE
  5
21A
100
AcDbEntity
  8
0
 62
     7
100
AcDbLine
 10
-4.55999662
 20
13.87398948
 30
0.0
 11
-3.62445511
 21
13.87398948
 31
0.0
  0
LINE
  5
21B
100
AcDbEntity
  8
0
 62
     7
100
AcDbLine
 10
-4.55999662
 20
13.22698053
 30
0.0
 11
-3.62445511
 21
13.22698053
 31
0.0
  0
LINE
  5
21C
100
AcDbEntity
  8
0
 62
     7
100
AcDbLine
 10
-1.59524693
 20
13.22698053
 30
0.0
 11
-2.53078845
 21
13.22698053
 31
0.0
  0
LINE
  5
21D
100
AcDbEntity
  8
0
 62
     7
100
AcDbLine
 10
-1.59524693
 20
13.87398948
 30
0.0
 11
-2.53078845
 21
13.87398948
 31
0.0
  0
ARC
  5
21E
100
AcDbEntity
  8
0
 62
     7
100
AcDbCircle
 10
-2.60762178
 20
13.73507473
 30
0.0
 40
0.06
100
AcDbArc
 50
0.0
 51
75.0
  0
ARC
  5
21F
100
AcDbEntity
  8
0
 62
     7
100
AcDbCircle
 10
-2.60762178
 20
13.36589529
 30
0.0
 40
0.06
100
AcDbArc
 50
285.0
 51
0.0
  0
ARC
  5
220
100
AcDbEntity
  8
0
 62
     7
100
AcDbCircle
 10
-2.57762178
 20
13.75809454
 30
0.0
 40
0.125
100
AcDbArc
 50
0.0
 51
75.0
  0
ARC
  5
221
100
AcDbEntity
  8
0
 62
     7
100
AcDbCircle
 10
-2.57762178
 20
13.34287548
 30
0.0
 40
0.125
100
AcDbArc
 50
285.0
 51
0.0
  0
LINE
  5
222
100
AcDbEntity
  8
0
 62
     7
100
AcDbLine
 10
-2.95262178
 20
13.21133624
 30
0.0
 11
-2.92803397
 21
13.11957329
 31
0.0
  0
LINE
  5
223
100
AcDbEntity
  8
0
 62
     7
100
AcDbLine
 10
-2.95262178
 20
13.88963377
 30
0.0
 11
-2.92803397
 21
13.98139672
 31
0.0
  0
LINE
  5
224
100
AcDbEntity
  8
0
 62
     7
100
AcDbLine
 10
-2.59209263
 20
13.79303028
 30
0.0
 11
-2.95262178
 21
13.88963377
 31
0.0
  0
LINE
  5
225
100
AcDbEntity
  8
0
 62
     7
100
AcDbLine
 10
-2.54762178
 20
13.73507473
 30
0.0
 11
-2.54762178
 21
13.36589529
 31
0.0
  0
LINE
  5
226
100
AcDbEntity
  8
0
 62
     7
100
AcDbLine
 10
-2.59209263
 20
13.30793974
 30
0.0
 11
-2.95262178
 21
13.21133624
 31
0.0
  0
LINE
  5
227
100
AcDbEntity
  8
0
 62
     7
100
AcDbLine
 10
-2.45262178
 20
13.75809454
 30
0.0
 11
-2.45262178
 21
13.34287548
 31
0.0
  0
LINE
  5
228
100
AcDbEntity
  8
0
 62
     7
100
AcDbLine
 10
-2.5452694
 20
13.22213475
 30
0.0
 11
-2.92803397
 21
13.11957329
 31
0.0
  0
LINE
  5
229
100
AcDbEntity
  8
0
 62
     7
100
AcDbLine
 10
-2.5452694
 20
13.87883526
 30
0.0
 11
-2.92803397
 21
13.98139672
 31
0.0
  0
ARC
  5
22A
100
AcDbEntity
  8
0
 62
     7
100
AcDbCircle
 10
-1.34673885
 20
13.55048501
 30
0.0
 40
0.219
100
AcDbArc
 50
290.0
 51
70.0
  0
LINE
  5
22B
100
AcDbEntity
  8
0
 62
     7
100
AcDbLine
 10
-1.27183643
 20
13.34469232
 30
0.0
 11
-1.59524693
 21
13.22698053
 31
0.0
  0
LINE
  5
22C
100
AcDbEntity
  8
0
 62
     7
100
AcDbLine
 10
-1.27183643
 20
13.75627769
 30
0.0
 11
-1.59524693
 21
13.87398948
 31
0.0
  0
LINE
  5
22D
100
AcDbEntity
  8
0
 62
     7
100
AcDbLine
 10
-2.07662178
 20
13.64348501
 30
0.0
 11
-2.26462178
 21
13.64348501
 31
0.0
  0
LINE
  5
22E
100
AcDbEntity
  8
0
 62
     7
100
AcDbLine
 10
-2.07662178
 20
13.45748501
 30
0.0
 11
-2.26462178
 21
13.45748501
 31
0.0
  0
ARC
  5
22F
100
AcDbEntity
  8
0
 62
     7
100
AcDbCircle
 10
-3.53424999
 20
13.55048501
 30
0.0
 40
0.28442519
100
AcDbArc
 50
125.75585349
 51
234.24414651
  0
LINE
  5
230
100
AcDbEntity
  8
0
 62
     7
100
AcDbLine
 10
-2.54762178
 20
13.64348501
 30
0.0
 11
-3.60762178
 21
13.64348501
 31
0.0
  0
LINE
  5
231
100
AcDbEntity
  8
0
 62
     7
100
AcDbLine
 10
-2.54762178
 20
13.45748501
 30
0.0
 11
-3.60762178
 21
13.45748501
 31
0.0
  0
LINE
  5
232
100
AcDbEntity
  8
0
 62
     7
100
AcDbLine
 10
-2.26462178
 20
13.73848501
 30
0.0
 11
-2.45262178
 21
13.73848501
 31
0.0
  0
LINE
  5
233
100
AcDbEntity
  8
0
 62
     7
100
AcDbLine
 10
-2.26462178
 20
13.36248501
 30
0.0
 11
-2.45262178
 21
13.36248501
 31
0.0
  0
LINE
  5
234
100
AcDbEntity
  8
0
 62
     7
100
AcDbLine
 10
-2.26462178
 20
13.73848501
 30
0.0
 11
-2.26462178
 21
13.36248501
 31
0.0
  0
LINE
  5
235
100
AcDbEntity
  8
0
 62
     7
100
AcDbLine
 10
-2.07662178
 20
13.64348501
 30
0.0
 11
-2.07662178
 21
13.45748501
 31
0.0
  0
LINE
  5
236
100
AcDbEntity
  8
0
 62
     7
100
AcDbLine
 10
-11.87462178
 20
1.33148501
 30
0.0
 11
-11.87462178
 21
1.11348501
 31
0.0
  0
LINE
  5
237
100
AcDbEntity
  8
0
 62
     7
100
AcDbLine
 10
-12.17162178
 20
3.36348501
 30
0.0
 11
-14.67162178
 21
3.36348501
 31
0.0
  0
LINE
  5
238
100
AcDbEntity
  8
0
 62
     7
100
AcDbLine
 10
-12.49962178
 20
1.95748501
 30
0.0
 11
-12.49962178
 21
1.51948501
 31
0.0
  0
LINE
  5
239
100
AcDbEntity
  8
0
 62
     7
100
AcDbLine
 10
-12.74962178
 20
1.95748501
 30
0.0
 11
-12.74962178
 21
1.51948501
 31
0.0
  0
ARC
  5
23A
100
AcDbEntity
  8
0
 62
     7
100
AcDbCircle
 10
-12.62462178
 20
1.95748501
 30
0.0
 40
0.125
100
AcDbArc
 50
0.0
 51
180.0
  0
LINE
  5
23B
100
AcDbEntity
  8
0
 62
     7
100
AcDbLine
 10
-12.84362178
 20
1.33148501
 30
0.0
 11
-12.84362178
 21
1.11348501
 31
0.0
  0
LINE
  5
23C
100
AcDbEntity
  8
0
 62
     7
100
AcDbLine
 10
-12.40562178
 20
1.33148501
 30
0.0
 11
-12.40562178
 21
1.11348501
 31
0.0
  0
ARC
  5
23D
100
AcDbEntity
  8
0
 62
     7
100
AcDbCircle
 10
-11.96862178
 20
1.33148501
 30
0.0
 40
0.094
100
AcDbArc
 50
0.0
 51
90.0
  0
ARC
  5
23E
100
AcDbEntity
  8
0
 62
     7
100
AcDbCircle
 10
-13.28062178
 20
1.33148501
 30
0.0
 40
0.094
100
AcDbArc
 50
90.0
 51
180.0
  0
ARC
  5
23F
100
AcDbEntity
  8
0
 62
     7
100
AcDbCircle
 10
-12.93762178
 20
1.33148501
 30
0.0
 40
0.094
100
AcDbArc
 50
0.0
 51
90.0
  0
ARC
  5
240
100
AcDbEntity
  8
0
 62
     7
100
AcDbCircle
 10
-12.31162178
 20
1.33148501
 30
0.0
 40
0.094
100
AcDbArc
 50
90.0
 51
180.0
  0
ARC
  5
241
100
AcDbEntity
  8
0
 62
     7
100
AcDbCircle
 10
-12.40562178
 20
1.51948501
 30
0.0
 40
0.094
100
AcDbArc
 50
180.0
 51
270.0
  0
ARC
  5
242
100
AcDbEntity
  8
0
 62
     7
100
AcDbCircle
 10
-12.84362178
 20
1.51948501
 30
0.0
 40
0.094
100
AcDbArc
 50
270.0
 51
0.0
  0
LINE
  5
243
100
AcDbEntity
  8
0
 62
     7
100
AcDbLine
 10
-11.96862178
 20
1.42548501
 30
0.0
 11
-13.28062178
 21
1.42548501
 31
0.0
  0
LINE
  5
244
100
AcDbEntity
  8
0
 62
     7
100
AcDbLine
 10
-8.24962178
 20
2.46164787
 30
0.0
 11
-4.7151349
 21
1.28194507
 31
0.0
  0
LINE
  5
245
100
AcDbEntity
  8
0
 62
     7
100
AcDbLine
 10
-11.78410865
 20
1.28194507
 30
0.0
 11
-8.24962178
 21
2.46164787
 31
0.0
  0
LINE
  5
246
100
AcDbEntity
  8
0
 62
     7
100
AcDbLine
 10
-8.24962178
 20
4.59441917
 30
0.0
 11
-4.25888446
 21
2.97462131
 31
0.0
  0
ARC
  5
247
100
AcDbEntity
  8
0
  6
HIDDEN
 62
     7
100
AcDbCircle
 10
-8.24962178
 20
3.55048501
 30
0.0
 40
1.375
100
AcDbArc
 50
292.81511005
 51
22.59859576
  0
ARC
  5
248
100
AcDbEntity
  8
0
  6
HIDDEN
 62
     7
100
AcDbCircle
 10
-8.24962178
 20
3.55048501
 30
0.0
 40
1.375
100
AcDbArc
 50
157.40140424
 51
247.18488995
  0
ARC
  5
249
100
AcDbEntity
  8
0
 62
     7
100
AcDbCircle
 10
-8.24962178
 20
3.55048501
 30
0.0
 40
1.375
100
AcDbArc
 50
22.59859576
 51
157.40140424
  0
ARC
  5
24A
100
AcDbEntity
  8
0
 62
     7
100
AcDbCircle
 10
-8.24962178
 20
3.55048501
 30
0.0
 40
1.375
100
AcDbArc
 50
247.18488995
 51
292.81511005
  0
CIRCLE
  5
24B
100
AcDbEntity
  8
0
  6
HIDDEN
 62
     7
100
AcDbCircle
 10
-8.24962178
 20
3.55048501
 30
0.0
 40
0.797
  0
POINT
  5
24C
100
AcDbEntity
  8
0
  6
BYBLOCK
 62
     7
100
AcDbPoint
 10
-11.87462178
 20
1.11348501
 30
0.0
  0
POINT
  5
24D
100
AcDbEntity
  8
0
  6
BYBLOCK
 62
     7
100
AcDbPoint
 10
-11.87462178
 20
1.11348501
 30
0.0
  0
ARC
  5
24E
100
AcDbEntity
  8
0
 62
     7
100
AcDbCircle
 10
-4.17162178
 20
3.17548501
 30
0.0
 40
1.97
100
AcDbArc
 50
303.3269311
 51
0.0
  0
ARC
  5
24F
100
AcDbEntity
  8
0
 62
     7
100
AcDbCircle
 10
-4.17162178
 20
3.17548501
 30
0.0
 40
0.219
100
AcDbArc
 50
246.5180767
 51
0.0
  0
LINE
  5
250
100
AcDbEntity
  8
0
 62
     7
100
AcDbLine
 10
-8.24962178
 20
4.59441917
 30
0.0
 11
-12.2403591
 21
2.97462131
 31
0.0
  0
ARC
  5
251
100
AcDbEntity
  8
0
 62
     7
100
AcDbCircle
 10
-12.32762178
 20
3.17548501
 30
0.0
 40
1.97
100
AcDbArc
 50
180.0
 51
236.6730689
  0
ARC
  5
252
100
AcDbEntity
  8
0
 62
     7
100
AcDbCircle
 10
-12.32762178
 20
3.17548501
 30
0.0
 40
0.219
100
AcDbArc
 50
180.0
 51
293.4819233
  0
LINE
  5
253
100
AcDbEntity
  8
0
 62
     7
100
AcDbLine
 10
-4.32762178
 20
3.36348501
 30
0.0
 11
-1.82762178
 21
3.36348501
 31
0.0
  0
ARC
  5
254
100
AcDbEntity
  8
0
 62
     7
100
AcDbCircle
 10
-13.4786475
 20
1.42500941
 30
0.0
 40
0.125
100
AcDbArc
 50
334.71937645
 51
56.6730689
  0
ARC
  5
255
100
AcDbEntity
  8
0
 62
     7
100
AcDbCircle
 10
-13.28062178
 20
1.33148501
 30
0.0
 40
0.094
100
AcDbArc
 50
154.71937645
 51
180.0
  0
LINE
  5
256
100
AcDbEntity
  8
0
 62
     7
100
AcDbLine
 10
-13.37462178
 20
1.33148501
 30
0.0
 11
-13.37462178
 21
1.11348501
 31
0.0
  0
ARC
  5
257
100
AcDbEntity
  8
0
 62
     7
100
AcDbCircle
 10
-3.02059606
 20
1.42500941
 30
0.0
 40
0.125
100
AcDbArc
 50
123.3269311
 51
205.28062355
  0
LINE
  5
258
100
AcDbEntity
  8
0
 62
     7
100
AcDbLine
 10
-4.53062178
 20
1.42548501
 30
0.0
 11
-3.21862178
 21
1.42548501
 31
0.0
  0
ARC
  5
259
100
AcDbEntity
  8
0
 62
     7
100
AcDbCircle
 10
-3.65562178
 20
1.51948501
 30
0.0
 40
0.094
100
AcDbArc
 50
180.0
 51
270.0
  0
ARC
  5
25A
100
AcDbEntity
  8
0
 62
     7
100
AcDbCircle
 10
-4.09362178
 20
1.51948501
 30
0.0
 40
0.094
100
AcDbArc
 50
270.0
 51
0.0
  0
ARC
  5
25B
100
AcDbEntity
  8
0
 62
     7
100
AcDbCircle
 10
-4.18762178
 20
1.33148501
 30
0.0
 40
0.094
100
AcDbArc
 50
0.0
 51
90.0
  0
ARC
  5
25C
100
AcDbEntity
  8
0
 62
     7
100
AcDbCircle
 10
-3.56162178
 20
1.33148501
 30
0.0
 40
0.094
100
AcDbArc
 50
90.0
 51
180.0
  0
ARC
  5
25D
100
AcDbEntity
  8
0
 62
     7
100
AcDbCircle
 10
-3.21862178
 20
1.33148501
 30
0.0
 40
0.094
100
AcDbArc
 50
0.0
 51
90.0
  0
ARC
  5
25E
100
AcDbEntity
  8
0
 62
     7
100
AcDbCircle
 10
-4.53062178
 20
1.33148501
 30
0.0
 40
0.094
100
AcDbArc
 50
90.0
 51
180.0
  0
LINE
  5
25F
100
AcDbEntity
  8
0
 62
     7
100
AcDbLine
 10
-4.09362178
 20
1.33148501
 30
0.0
 11
-4.09362178
 21
1.11348501
 31
0.0
  0
LINE
  5
260
100
AcDbEntity
  8
0
 62
     7
100
AcDbLine
 10
-3.65562178
 20
1.33148501
 30
0.0
 11
-3.65562178
 21
1.11348501
 31
0.0
  0
ARC
  5
261
100
AcDbEntity
  8
0
 62
     7
100
AcDbCircle
 10
-3.87462178
 20
1.95748501
 30
0.0
 40
0.125
100
AcDbArc
 50
0.0
 51
180.0
  0
LINE
  5
262
100
AcDbEntity
  8
0
 62
     7
100
AcDbLine
 10
-3.74962178
 20
1.95748501
 30
0.0
 11
-3.74962178
 21
1.51948501
 31
0.0
  0
LINE
  5
263
100
AcDbEntity
  8
0
 62
     7
100
AcDbLine
 10
-3.99962178
 20
1.95748501
 30
0.0
 11
-3.99962178
 21
1.51948501
 31
0.0
  0
ARC
  5
264
100
AcDbEntity
  8
0
 62
     7
100
AcDbCircle
 10
-4.74962178
 20
1.1617966
 30
0.0
 40
0.125
100
AcDbArc
 50
0.0
 51
73.9846433
  0
LINE
  5
265
100
AcDbEntity
  8
0
 62
     7
100
AcDbLine
 10
-4.62462178
 20
1.11348501
 30
0.0
 11
-4.62462178
 21
1.33148501
 31
0.0
  0
ARC
  5
266
100
AcDbEntity
  8
0
 62
     7
100
AcDbCircle
 10
-11.74962178
 20
1.1617966
 30
0.0
 40
0.125
100
AcDbArc
 50
106.0153567
 51
180.0
  0
LINE
  5
267
100
AcDbEntity
  8
0
 62
     7
100
AcDbLine
 10
-3.12462178
 20
1.33148501
 30
0.0
 11
-3.12462178
 21
1.11348501
 31
0.0
  0
LINE
  5
268
100
AcDbEntity
  8
0
 62
     7
100
AcDbLine
 10
-4.62462178
 20
1.11348501
 30
0.0
 11
-3.12462178
 21
1.11348501
 31
0.0
  0
LINE
  5
269
100
AcDbEntity
  8
0
 62
     7
100
AcDbLine
 10
-13.37462178
 20
1.33148501
 30
0.0
 11
-13.37462178
 21
1.11348501
 31
0.0
  0
LINE
  5
26A
100
AcDbEntity
  8
0
 62
     7
100
AcDbLine
 10
-13.37462178
 20
1.11348501
 30
0.0
 11
-11.87462178
 21
1.11348501
 31
0.0
  0
LINE
  5
26B
100
AcDbEntity
  8
0
 62
     7
100
AcDbLine
 10
-1.70262178
 20
3.60198053
 30
0.0
 11
-1.70262178
 21
3.48848501
 31
0.0
  0
LINE
  5
26C
100
AcDbEntity
  8
0
 62
     7
100
AcDbLine
 10
-4.45262178
 20
3.60198053
 30
0.0
 11
-4.45262178
 21
3.48848501
 31
0.0
  0
ARC
  5
26D
100
AcDbEntity
  8
0
 62
     7
100
AcDbCircle
 10
-1.82762178
 20
3.48848501
 30
0.0
 40
0.125
100
AcDbArc
 50
270.0
 51
0.0
  0
ARC
  5
26E
100
AcDbEntity
  8
0
 62
     7
100
AcDbCircle
 10
-4.32762178
 20
3.48848501
 30
0.0
 40
0.125
100
AcDbArc
 50
180.0
 51
270.0
  0
LINE
  5
26F
100
AcDbEntity
  8
0
 62
     7
100
AcDbLine
 10
-2.20162178
 20
3.17548501
 30
0.0
 11
-2.20162178
 21
3.23848501
 31
0.0
  0
ARC
  5
270
100
AcDbEntity
  8
0
 62
     7
100
AcDbCircle
 10
-2.07662178
 20
3.23848501
 30
0.0
 40
0.125
100
AcDbArc
 50
90.0
 51
180.0
  0
LINE
  5
271
100
AcDbEntity
  8
0
 62
     7
100
AcDbLine
 10
-3.95262178
 20
3.17548501
 30
0.0
 11
-3.95262178
 21
3.23848501
 31
0.0
  0
ARC
  5
272
100
AcDbEntity
  8
0
 62
     7
100
AcDbCircle
 10
-4.07762178
 20
3.23848501
 30
0.0
 40
0.125
100
AcDbArc
 50
0.0
 51
90.0
  0
ARC
  5
273
100
AcDbEntity
  8
0
 62
     7
100
AcDbCircle
 10
-12.42162178
 20
3.23848501
 30
0.0
 40
0.125
100
AcDbArc
 50
90.0
 51
180.0
  0
LINE
  5
274
100
AcDbEntity
  8
0
 62
     7
100
AcDbLine
 10
-12.54662178
 20
3.17548501
 30
0.0
 11
-12.54662178
 21
3.23848501
 31
0.0
  0
ARC
  5
275
100
AcDbEntity
  8
0
 62
     7
100
AcDbCircle
 10
-14.42262178
 20
3.23848501
 30
0.0
 40
0.125
100
AcDbArc
 50
0.0
 51
90.0
  0
LINE
  5
276
100
AcDbEntity
  8
0
 62
     7
100
AcDbLine
 10
-14.29762178
 20
3.17548501
 30
0.0
 11
-14.29762178
 21
3.23848501
 31
0.0
  0
ARC
  5
277
100
AcDbEntity
  8
0
 62
     7
100
AcDbCircle
 10
-12.17162178
 20
3.48848501
 30
0.0
 40
0.125
100
AcDbArc
 50
270.0
 51
0.0
  0
ARC
  5
278
100
AcDbEntity
  8
0
 62
     7
100
AcDbCircle
 10
-14.67162178
 20
3.48848501
 30
0.0
 40
0.125
100
AcDbArc
 50
180.0
 51
270.0
  0
LINE
  5
279
100
AcDbEntity
  8
0
 62
     7
100
AcDbLine
 10
-14.42262178
 20
3.36348501
 30
0.0
 11
-14.67162178
 21
3.36348501
 31
0.0
  0
LINE
  5
27A
100
AcDbEntity
  8
0
 62
     7
100
AcDbLine
 10
-12.17162178
 20
3.36348501
 30
0.0
 11
-12.42162178
 21
3.36348501
 31
0.0
  0
LINE
  5
27B
100
AcDbEntity
  8
0
 62
     7
100
AcDbLine
 10
-12.04662178
 20
3.60198053
 30
0.0
 11
-12.04662178
 21
3.48848501
 31
0.0
  0
LINE
  5
27C
100
AcDbEntity
  8
0
 62
     7
100
AcDbLine
 10
-14.79662178
 20
3.60198053
 30
0.0
 11
-14.79662178
 21
3.48848501
 31
0.0
  0
LINE
  5
27D
100
AcDbEntity
  8
0
 62
     7
100
AcDbLine
 10
-14.42262178
 20
13.64348501
 30
0.0
 11
-14.42262178
 21
13.45748501
 31
0.0
  0
LINE
  5
27E
100
AcDbEntity
  8
0
 62
     7
100
AcDbLine
 10
-14.23462178
 20
13.73848501
 30
0.0
 11
-14.23462178
 21
13.36248501
 31
0.0
  0
LINE
  5
27F
100
AcDbEntity
  8
0
 62
     7
100
AcDbLine
 10
-14.23462178
 20
13.36248501
 30
0.0
 11
-14.04662178
 21
13.36248501
 31
0.0
  0
LINE
  5
280
100
AcDbEntity
  8
0
 62
     7
100
AcDbLine
 10
-14.23462178
 20
13.73848501
 30
0.0
 11
-14.04662178
 21
13.73848501
 31
0.0
  0
LINE
  5
281
100
AcDbEntity
  8
0
 62
     7
100
AcDbLine
 10
-13.95162178
 20
13.45748501
 30
0.0
 11
-12.89162178
 21
13.45748501
 31
0.0
  0
LINE
  5
282
100
AcDbEntity
  8
0
 62
     7
100
AcDbLine
 10
-13.95162178
 20
13.64348501
 30
0.0
 11
-12.89162178
 21
13.64348501
 31
0.0
  0
ARC
  5
283
100
AcDbEntity
  8
0
 62
     7
100
AcDbCircle
 10
-12.96499356
 20
13.55048501
 30
0.0
 40
0.28442519
100
AcDbArc
 50
305.75585349
 51
54.24414651
  0
LINE
  5
284
100
AcDbEntity
  8
0
 62
     7
100
AcDbLine
 10
-14.42262178
 20
13.45748501
 30
0.0
 11
-14.23462178
 21
13.45748501
 31
0.0
  0
LINE
  5
285
100
AcDbEntity
  8
0
 62
     7
100
AcDbLine
 10
-14.42262178
 20
13.64348501
 30
0.0
 11
-14.23462178
 21
13.64348501
 31
0.0
  0
LINE
  5
286
100
AcDbEntity
  8
0
 62
     7
100
AcDbLine
 10
-15.22740712
 20
13.75627769
 30
0.0
 11
-14.90399662
 21
13.87398948
 31
0.0
  0
LINE
  5
287
100
AcDbEntity
  8
0
 62
     7
100
AcDbLine
 10
-15.22740712
 20
13.34469232
 30
0.0
 11
-14.90399662
 21
13.22698053
 31
0.0
  0
ARC
  5
288
100
AcDbEntity
  8
0
 62
     7
100
AcDbCircle
 10
-15.15250471
 20
13.55048501
 30
0.0
 40
0.219
100
AcDbArc
 50
110.0
 51
250.0
  0
LINE
  5
289
100
AcDbEntity
  8
0
 62
     7
100
AcDbLine
 10
-13.95397416
 20
13.87883526
 30
0.0
 11
-13.57120959
 21
13.98139672
 31
0.0
  0
LINE
  5
28A
100
AcDbEntity
  8
0
 62
     7
100
AcDbLine
 10
-13.95397416
 20
13.22213475
 30
0.0
 11
-13.57120959
 21
13.11957329
 31
0.0
  0
LINE
  5
28B
100
AcDbEntity
  8
0
 62
     7
100
AcDbLine
 10
-14.04662178
 20
13.75809454
 30
0.0
 11
-14.04662178
 21
13.34287548
 31
0.0
  0
LINE
  5
28C
100
AcDbEntity
  8
0
 62
     7
100
AcDbLine
 10
-13.90715092
 20
13.30793974
 30
0.0
 11
-13.54662178
 21
13.21133624
 31
0.0
  0
LINE
  5
28D
100
AcDbEntity
  8
0
 62
     7
100
AcDbLine
 10
-13.95162178
 20
13.73507473
 30
0.0
 11
-13.95162178
 21
13.36589529
 31
0.0
  0
LINE
  5
28E
100
AcDbEntity
  8
0
 62
     7
100
AcDbLine
 10
-13.90715092
 20
13.79303028
 30
0.0
 11
-13.54662178
 21
13.88963377
 31
0.0
  0
LINE
  5
28F
100
AcDbEntity
  8
0
 62
     7
100
AcDbLine
 10
-13.54662178
 20
13.88963377
 30
0.0
 11
-13.57120959
 21
13.98139672
 31
0.0
  0
LINE
  5
290
100
AcDbEntity
  8
0
 62
     7
100
AcDbLine
 10
-13.54662178
 20
13.21133624
 30
0.0
 11
-13.57120959
 21
13.11957329
 31
0.0
  0
ARC
  5
291
100
AcDbEntity
  8
0
 62
     7
100
AcDbCircle
 10
-13.92162178
 20
13.34287548
 30
0.0
 40
0.125
100
AcDbArc
 50
180.0
 51
255.0
  0
ARC
  5
292
100
AcDbEntity
  8
0
 62
     7
100
AcDbCircle
 10
-13.92162178
 20
13.75809454
 30
0.0
 40
0.125
100
AcDbArc
 50
105.0
 51
180.0
  0
ARC
  5
293
100
AcDbEntity
  8
0
 62
     7
100
AcDbCircle
 10
-13.89162178
 20
13.36589529
 30
0.0
 40
0.06
100
AcDbArc
 50
180.0
 51
255.0
  0
ARC
  5
294
100
AcDbEntity
  8
0
 62
     7
100
AcDbCircle
 10
-13.89162178
 20
13.73507473
 30
0.0
 40
0.06
100
AcDbArc
 50
105.0
 51
180.0
  0
LINE
  5
295
100
AcDbEntity
  8
0
 62
     7
100
AcDbLine
 10
-14.90399662
 20
13.87398948
 30
0.0
 11
-13.96845511
 21
13.87398948
 31
0.0
  0
LINE
  5
296
100
AcDbEntity
  8
0
 62
     7
100
AcDbLine
 10
-14.90399662
 20
13.22698053
 30
0.0
 11
-13.96845511
 21
13.22698053
 31
0.0
  0
LINE
  5
297
100
AcDbEntity
  8
0
 62
     7
100
AcDbLine
 10
-11.93924693
 20
13.22698053
 30
0.0
 11
-12.87478845
 21
13.22698053
 31
0.0
  0
LINE
  5
298
100
AcDbEntity
  8
0
 62
     7
100
AcDbLine
 10
-11.93924693
 20
13.87398948
 30
0.0
 11
-12.87478845
 21
13.87398948
 31
0.0
  0
ARC
  5
299
100
AcDbEntity
  8
0
 62
     7
100
AcDbCircle
 10
-12.95162178
 20
13.73507473
 30
0.0
 40
0.06
100
AcDbArc
 50
0.0
 51
75.0
  0
ARC
  5
29A
100
AcDbEntity
  8
0
 62
     7
100
AcDbCircle
 10
-12.95162178
 20
13.36589529
 30
0.0
 40
0.06
100
AcDbArc
 50
285.0
 51
0.0
  0
ARC
  5
29B
100
AcDbEntity
  8
0
 62
     7
100
AcDbCircle
 10
-12.92162178
 20
13.75809454
 30
0.0
 40
0.125
100
AcDbArc
 50
0.0
 51
75.0
  0
ARC
  5
29C
100
AcDbEntity
  8
0
 62
     7
100
AcDbCircle
 10
-12.92162178
 20
13.34287548
 30
0.0
 40
0.125
100
AcDbArc
 50
285.0
 51
0.0
  0
LINE
  5
29D
100
AcDbEntity
  8
0
 62
     7
100
AcDbLine
 10
-13.29662178
 20
13.21133624
 30
0.0
 11
-13.27203397
 21
13.11957329
 31
0.0
  0
LINE
  5
29E
100
AcDbEntity
  8
0
 62
     7
100
AcDbLine
 10
-13.29662178
 20
13.88963377
 30
0.0
 11
-13.27203397
 21
13.98139672
 31
0.0
  0
LINE
  5
29F
100
AcDbEntity
  8
0
 62
     7
100
AcDbLine
 10
-12.93609263
 20
13.79303028
 30
0.0
 11
-13.29662178
 21
13.88963377
 31
0.0
  0
LINE
  5
2A0
100
AcDbEntity
  8
0
 62
     7
100
AcDbLine
 10
-12.89162178
 20
13.73507473
 30
0.0
 11
-12.89162178
 21
13.36589529
 31
0.0
  0
LINE
  5
2A1
100
AcDbEntity
  8
0
 62
     7
100
AcDbLine
 10
-12.93609263
 20
13.30793974
 30
0.0
 11
-13.29662178
 21
13.21133624
 31
0.0
  0
LINE
  5
2A2
100
AcDbEntity
  8
0
 62
     7
100
AcDbLine
 10
-12.79662178
 20
13.75809454
 30
0.0
 11
-12.79662178
 21
13.34287548
 31
0.0
  0
LINE
  5
2A3
100
AcDbEntity
  8
0
 62
     7
100
AcDbLine
 10
-12.8892694
 20
13.22213475
 30
0.0
 11
-13.27203397
 21
13.11957329
 31
0.0
  0
LINE
  5
2A4
100
AcDbEntity
  8
0
 62
     7
100
AcDbLine
 10
-12.8892694
 20
13.87883526
 30
0.0
 11
-13.27203397
 21
13.98139672
 31
0.0
  0
ARC
  5
2A5
100
AcDbEntity
  8
0
 62
     7
100
AcDbCircle
 10
-11.69073885
 20
13.55048501
 30
0.0
 40
0.219
100
AcDbArc
 50
290.0
 51
70.0
  0
LINE
  5
2A6
100
AcDbEntity
  8
0
 62
     7
100
AcDbLine
 10
-11.61583643
 20
13.34469232
 30
0.0
 11
-11.93924693
 21
13.22698053
 31
0.0
  0
LINE
  5
2A7
100
AcDbEntity
  8
0
 62
     7
100
AcDbLine
 10
-11.61583643
 20
13.75627769
 30
0.0
 11
-11.93924693
 21
13.87398948
 31
0.0
  0
LINE
  5
2A8
100
AcDbEntity
  8
0
 62
     7
100
AcDbLine
 10
-11.61583643
 20
3.71969232
 30
0.0
 11
-11.93924693
 21
3.60198053
 31
0.0
  0
LINE
  5
2A9
100
AcDbEntity
  8
0
 62
     7
100
AcDbLine
 10
-11.61583643
 20
4.13127769
 30
0.0
 11
-11.93924693
 21
4.24898948
 31
0.0
  0
ARC
  5
2AA
100
AcDbEntity
  8
0
 62
     7
100
AcDbCircle
 10
-11.69073885
 20
3.92548501
 30
0.0
 40
0.219
100
AcDbArc
 50
290.0
 51
70.0
  0
LINE
  5
2AB
100
AcDbEntity
  8
0
 62
     7
100
AcDbLine
 10
-12.8892694
 20
3.59713475
 30
0.0
 11
-13.27203397
 21
3.49457329
 31
0.0
  0
LINE
  5
2AC
100
AcDbEntity
  8
0
 62
     7
100
AcDbLine
 10
-12.8892694
 20
4.25383526
 30
0.0
 11
-13.27203397
 21
4.35639672
 31
0.0
  0
LINE
  5
2AD
100
AcDbEntity
  8
0
 62
     7
100
AcDbLine
 10
-12.79662178
 20
3.71787548
 30
0.0
 11
-12.79662178
 21
4.13309454
 31
0.0
  0
LINE
  5
2AE
100
AcDbEntity
  8
0
 62
     7
100
AcDbLine
 10
-12.93609263
 20
4.16803028
 30
0.0
 11
-13.29662178
 21
4.26463377
 31
0.0
  0
LINE
  5
2AF
100
AcDbEntity
  8
0
 62
     7
100
AcDbLine
 10
-12.89162178
 20
3.74089529
 30
0.0
 11
-12.89162178
 21
4.11007473
 31
0.0
  0
LINE
  5
2B0
100
AcDbEntity
  8
0
 62
     7
100
AcDbLine
 10
-12.93609263
 20
3.68293974
 30
0.0
 11
-13.29662178
 21
3.58633624
 31
0.0
  0
LINE
  5
2B1
100
AcDbEntity
  8
0
 62
     7
100
AcDbLine
 10
-13.29662178
 20
3.58633624
 30
0.0
 11
-13.27203397
 21
3.49457329
 31
0.0
  0
LINE
  5
2B2
100
AcDbEntity
  8
0
 62
     7
100
AcDbLine
 10
-13.29662178
 20
4.26463377
 30
0.0
 11
-13.27203397
 21
4.35639672
 31
0.0
  0
ARC
  5
2B3
100
AcDbEntity
  8
0
 62
     7
100
AcDbCircle
 10
-12.92162178
 20
4.13309454
 30
0.0
 40
0.125
100
AcDbArc
 50
0.0
 51
75.0
  0
ARC
  5
2B4
100
AcDbEntity
  8
0
 62
     7
100
AcDbCircle
 10
-12.92162178
 20
3.71787548
 30
0.0
 40
0.125
100
AcDbArc
 50
285.0
 51
0.0
  0
ARC
  5
2B5
100
AcDbEntity
  8
0
 62
     7
100
AcDbCircle
 10
-12.95162178
 20
4.11007473
 30
0.0
 40
0.06
100
AcDbArc
 50
0.0
 51
75.0
  0
ARC
  5
2B6
100
AcDbEntity
  8
0
 62
     7
100
AcDbCircle
 10
-12.95162178
 20
3.74089529
 30
0.0
 40
0.06
100
AcDbArc
 50
285.0
 51
0.0
  0
LINE
  5
2B7
100
AcDbEntity
  8
0
 62
     7
100
AcDbLine
 10
-11.93924693
 20
3.60198053
 30
0.0
 11
-12.87478845
 21
3.60198053
 31
0.0
  0
LINE
  5
2B8
100
AcDbEntity
  8
0
 62
     7
100
AcDbLine
 10
-11.93924693
 20
4.24898948
 30
0.0
 11
-12.87478845
 21
4.24898948
 31
0.0
  0
LINE
  5
2B9
100
AcDbEntity
  8
0
 62
     7
100
AcDbLine
 10
-14.90399662
 20
4.24898948
 30
0.0
 11
-13.96845511
 21
4.24898948
 31
0.0
  0
LINE
  5
2BA
100
AcDbEntity
  8
0
 62
     7
100
AcDbLine
 10
-14.90399662
 20
3.60198053
 30
0.0
 11
-13.96845511
 21
3.60198053
 31
0.0
  0
ARC
  5
2BB
100
AcDbEntity
  8
0
 62
     7
100
AcDbCircle
 10
-13.89162178
 20
3.74089529
 30
0.0
 40
0.06
100
AcDbArc
 50
180.0
 51
255.0
  0
ARC
  5
2BC
100
AcDbEntity
  8
0
 62
     7
100
AcDbCircle
 10
-13.89162178
 20
4.11007473
 30
0.0
 40
0.06
100
AcDbArc
 50
105.0
 51
180.0
  0
ARC
  5
2BD
100
AcDbEntity
  8
0
 62
     7
100
AcDbCircle
 10
-13.92162178
 20
3.71787548
 30
0.0
 40
0.125
100
AcDbArc
 50
180.0
 51
255.0
  0
ARC
  5
2BE
100
AcDbEntity
  8
0
 62
     7
100
AcDbCircle
 10
-13.92162178
 20
4.13309454
 30
0.0
 40
0.125
100
AcDbArc
 50
105.0
 51
180.0
  0
LINE
  5
2BF
100
AcDbEntity
  8
0
 62
     7
100
AcDbLine
 10
-13.54662178
 20
4.26463377
 30
0.0
 11
-13.57120959
 21
4.35639672
 31
0.0
  0
LINE
  5
2C0
100
AcDbEntity
  8
0
 62
     7
100
AcDbLine
 10
-13.54662178
 20
3.58633624
 30
0.0
 11
-13.57120959
 21
3.49457329
 31
0.0
  0
LINE
  5
2C1
100
AcDbEntity
  8
0
 62
     7
100
AcDbLine
 10
-13.90715092
 20
3.68293974
 30
0.0
 11
-13.54662178
 21
3.58633624
 31
0.0
  0
LINE
  5
2C2
100
AcDbEntity
  8
0
 62
     7
100
AcDbLine
 10
-13.95162178
 20
3.74089529
 30
0.0
 11
-13.95162178
 21
4.11007473
 31
0.0
  0
LINE
  5
2C3
100
AcDbEntity
  8
0
 62
     7
100
AcDbLine
 10
-13.90715092
 20
4.16803028
 30
0.0
 11
-13.54662178
 21
4.26463377
 31
0.0
  0
LINE
  5
2C4
100
AcDbEntity
  8
0
 62
     7
100
AcDbLine
 10
-14.04662178
 20
3.71787548
 30
0.0
 11
-14.04662178
 21
4.13309454
 31
0.0
  0
LINE
  5
2C5
100
AcDbEntity
  8
0
 62
     7
100
AcDbLine
 10
-13.95397416
 20
4.25383526
 30
0.0
 11
-13.57120959
 21
4.35639672
 31
0.0
  0
LINE
  5
2C6
100
AcDbEntity
  8
0
 62
     7
100
AcDbLine
 10
-13.95397416
 20
3.59713475
 30
0.0
 11
-13.57120959
 21
3.49457329
 31
0.0
  0
ARC
  5
2C7
100
AcDbEntity
  8
0
 62
     7
100
AcDbCircle
 10
-15.15250471
 20
3.92548501
 30
0.0
 40
0.219
100
AcDbArc
 50
110.0
 51
250.0
  0
LINE
  5
2C8
100
AcDbEntity
  8
0
 62
     7
100
AcDbLine
 10
-15.22740712
 20
4.13127769
 30
0.0
 11
-14.90399662
 21
4.24898948
 31
0.0
  0
LINE
  5
2C9
100
AcDbEntity
  8
0
 62
     7
100
AcDbLine
 10
-15.22740712
 20
3.71969232
 30
0.0
 11
-14.90399662
 21
3.60198053
 31
0.0
  0
LINE
  5
2CA
100
AcDbEntity
  8
0
 62
     7
100
AcDbLine
 10
-14.42262178
 20
3.83248501
 30
0.0
 11
-14.23462178
 21
3.83248501
 31
0.0
  0
LINE
  5
2CB
100
AcDbEntity
  8
0
 62
     7
100
AcDbLine
 10
-14.42262178
 20
4.01848501
 30
0.0
 11
-14.23462178
 21
4.01848501
 31
0.0
  0
ARC
  5
2CC
100
AcDbEntity
  8
0
 62
     7
100
AcDbCircle
 10
-12.96499356
 20
3.92548501
 30
0.0
 40
0.28442519
100
AcDbArc
 50
305.75585349
 51
54.24414651
  0
LINE
  5
2CD
100
AcDbEntity
  8
0
 62
     7
100
AcDbLine
 10
-13.95162178
 20
3.83248501
 30
0.0
 11
-12.89162178
 21
3.83248501
 31
0.0
  0
LINE
  5
2CE
100
AcDbEntity
  8
0
 62
     7
100
AcDbLine
 10
-13.95162178
 20
4.01848501
 30
0.0
 11
-12.89162178
 21
4.01848501
 31
0.0
  0
LINE
  5
2CF
100
AcDbEntity
  8
0
 62
     7
100
AcDbLine
 10
-14.23462178
 20
3.73748501
 30
0.0
 11
-14.04662178
 21
3.73748501
 31
0.0
  0
LINE
  5
2D0
100
AcDbEntity
  8
0
 62
     7
100
AcDbLine
 10
-14.23462178
 20
4.11348501
 30
0.0
 11
-14.04662178
 21
4.11348501
 31
0.0
  0
LINE
  5
2D1
100
AcDbEntity
  8
0
 62
     7
100
AcDbLine
 10
-14.23462178
 20
3.73748501
 30
0.0
 11
-14.23462178
 21
4.11348501
 31
0.0
  0
LINE
  5
2D2
100
AcDbEntity
  8
0
 62
     7
100
AcDbLine
 10
-14.42262178
 20
3.83248501
 30
0.0
 11
-14.42262178
 21
4.01848501
 31
0.0
  0
LINE
  5
2D3
100
AcDbEntity
  8
0
 62
     7
100
AcDbLine
 10
-2.07662178
 20
3.83248501
 30
0.0
 11
-2.07662178
 21
4.01848501
 31
0.0
  0
LINE
  5
2D4
100
AcDbEntity
  8
0
 62
     7
100
AcDbLine
 10
-2.26462178
 20
3.73748501
 30
0.0
 11
-2.26462178
 21
4.11348501
 31
0.0
  0
LINE
  5
2D5
100
AcDbEntity
  8
0
 62
     7
100
AcDbLine
 10
-2.26462178
 20
4.11348501
 30
0.0
 11
-2.45262178
 21
4.11348501
 31
0.0
  0
LINE
  5
2D6
100
AcDbEntity
  8
0
 62
     7
100
AcDbLine
 10
-2.26462178
 20
3.73748501
 30
0.0
 11
-2.45262178
 21
3.73748501
 31
0.0
  0
LINE
  5
2D7
100
AcDbEntity
  8
0
 62
     7
100
AcDbLine
 10
-2.54762178
 20
4.01848501
 30
0.0
 11
-3.60762178
 21
4.01848501
 31
0.0
  0
LINE
  5
2D8
100
AcDbEntity
  8
0
 62
     7
100
AcDbLine
 10
-2.54762178
 20
3.83248501
 30
0.0
 11
-3.60762178
 21
3.83248501
 31
0.0
  0
ARC
  5
2D9
100
AcDbEntity
  8
0
 62
     7
100
AcDbCircle
 10
-3.53424999
 20
3.92548501
 30
0.0
 40
0.28442519
100
AcDbArc
 50
125.75585349
 51
234.24414651
  0
LINE
  5
2DA
100
AcDbEntity
  8
0
 62
     7
100
AcDbLine
 10
-2.07662178
 20
4.01848501
 30
0.0
 11
-2.26462178
 21
4.01848501
 31
0.0
  0
LINE
  5
2DB
100
AcDbEntity
  8
0
 62
     7
100
AcDbLine
 10
-2.07662178
 20
3.83248501
 30
0.0
 11
-2.26462178
 21
3.83248501
 31
0.0
  0
LINE
  5
2DC
100
AcDbEntity
  8
0
 62
     7
100
AcDbLine
 10
-1.27183643
 20
3.71969232
 30
0.0
 11
-1.59524693
 21
3.60198053
 31
0.0
  0
LINE
  5
2DD
100
AcDbEntity
  8
0
 62
     7
100
AcDbLine
 10
-1.27183643
 20
4.13127769
 30
0.0
 11
-1.59524693
 21
4.24898948
 31
0.0
  0
ARC
  5
2DE
100
AcDbEntity
  8
0
 62
     7
100
AcDbCircle
 10
-1.34673885
 20
3.92548501
 30
0.0
 40
0.219
100
AcDbArc
 50
290.0
 51
70.0
  0
LINE
  5
2DF
100
AcDbEntity
  8
0
 62
     7
100
AcDbLine
 10
-2.5452694
 20
3.59713475
 30
0.0
 11
-2.92803397
 21
3.49457329
 31
0.0
  0
LINE
  5
2E0
100
AcDbEntity
  8
0
 62
     7
100
AcDbLine
 10
-2.5452694
 20
4.25383526
 30
0.0
 11
-2.92803397
 21
4.35639672
 31
0.0
  0
LINE
  5
2E1
100
AcDbEntity
  8
0
 62
     7
100
AcDbLine
 10
-2.45262178
 20
3.71787548
 30
0.0
 11
-2.45262178
 21
4.13309454
 31
0.0
  0
LINE
  5
2E2
100
AcDbEntity
  8
0
 62
     7
100
AcDbLine
 10
-2.59209263
 20
4.16803028
 30
0.0
 11
-2.95262178
 21
4.26463377
 31
0.0
  0
LINE
  5
2E3
100
AcDbEntity
  8
0
 62
     7
100
AcDbLine
 10
-2.54762178
 20
3.74089529
 30
0.0
 11
-2.54762178
 21
4.11007473
 31
0.0
  0
LINE
  5
2E4
100
AcDbEntity
  8
0
 62
     7
100
AcDbLine
 10
-2.59209263
 20
3.68293974
 30
0.0
 11
-2.95262178
 21
3.58633624
 31
0.0
  0
LINE
  5
2E5
100
AcDbEntity
  8
0
 62
     7
100
AcDbLine
 10
-2.95262178
 20
3.58633624
 30
0.0
 11
-2.92803397
 21
3.49457329
 31
0.0
  0
LINE
  5
2E6
100
AcDbEntity
  8
0
 62
     7
100
AcDbLine
 10
-2.95262178
 20
4.26463377
 30
0.0
 11
-2.92803397
 21
4.35639672
 31
0.0
  0
ARC
  5
2E7
100
AcDbEntity
  8
0
 62
     7
100
AcDbCircle
 10
-2.57762178
 20
4.13309454
 30
0.0
 40
0.125
100
AcDbArc
 50
0.0
 51
75.0
  0
ARC
  5
2E8
100
AcDbEntity
  8
0
 62
     7
100
AcDbCircle
 10
-2.57762178
 20
3.71787548
 30
0.0
 40
0.125
100
AcDbArc
 50
285.0
 51
0.0
  0
ARC
  5
2E9
100
AcDbEntity
  8
0
 62
     7
100
AcDbCircle
 10
-2.60762178
 20
4.11007473
 30
0.0
 40
0.06
100
AcDbArc
 50
0.0
 51
75.0
  0
ARC
  5
2EA
100
AcDbEntity
  8
0
 62
     7
100
AcDbCircle
 10
-2.60762178
 20
3.74089529
 30
0.0
 40
0.06
100
AcDbArc
 50
285.0
 51
0.0
  0
LINE
  5
2EB
100
AcDbEntity
  8
0
 62
     7
100
AcDbLine
 10
-1.59524693
 20
3.60198053
 30
0.0
 11
-2.53078845
 21
3.60198053
 31
0.0
  0
LINE
  5
2EC
100
AcDbEntity
  8
0
 62
     7
100
AcDbLine
 10
-1.59524693
 20
4.24898948
 30
0.0
 11
-2.53078845
 21
4.24898948
 31
0.0
  0
LINE
  5
2ED
100
AcDbEntity
  8
0
 62
     7
100
AcDbLine
 10
-4.55999662
 20
4.24898948
 30
0.0
 11
-3.62445511
 21
4.24898948
 31
0.0
  0
LINE
  5
2EE
100
AcDbEntity
  8
0
 62
     7
100
AcDbLine
 10
-4.55999662
 20
3.60198053
 30
0.0
 11
-3.62445511
 21
3.60198053
 31
0.0
  0
ARC
  5
2EF
100
AcDbEntity
  8
0
 62
     7
100
AcDbCircle
 10
-3.54762178
 20
3.74089529
 30
0.0
 40
0.06
100
AcDbArc
 50
180.0
 51
255.0
  0
ARC
  5
2F0
100
AcDbEntity
  8
0
 62
     7
100
AcDbCircle
 10
-3.54762178
 20
4.11007473
 30
0.0
 40
0.06
100
AcDbArc
 50
105.0
 51
180.0
  0
ARC
  5
2F1
100
AcDbEntity
  8
0
 62
     7
100
AcDbCircle
 10
-3.57762178
 20
3.71787548
 30
0.0
 40
0.125
100
AcDbArc
 50
180.0
 51
255.0
  0
ARC
  5
2F2
100
AcDbEntity
  8
0
 62
     7
100
AcDbCircle
 10
-3.57762178
 20
4.13309454
 30
0.0
 40
0.125
100
AcDbArc
 50
105.0
 51
180.0
  0
LINE
  5
2F3
100
AcDbEntity
  8
0
 62
     7
100
AcDbLine
 10
-3.20262178
 20
4.26463377
 30
0.0
 11
-3.22720959
 21
4.35639672
 31
0.0
  0
LINE
  5
2F4
100
AcDbEntity
  8
0
 62
     7
100
AcDbLine
 10
-3.20262178
 20
3.58633624
 30
0.0
 11
-3.22720959
 21
3.49457329
 31
0.0
  0
LINE
  5
2F5
100
AcDbEntity
  8
0
 62
     7
100
AcDbLine
 10
-3.56315092
 20
3.68293974
 30
0.0
 11
-3.20262178
 21
3.58633624
 31
0.0
  0
LINE
  5
2F6
100
AcDbEntity
  8
0
 62
     7
100
AcDbLine
 10
-3.60762178
 20
3.74089529
 30
0.0
 11
-3.60762178
 21
4.11007473
 31
0.0
  0
LINE
  5
2F7
100
AcDbEntity
  8
0
 62
     7
100
AcDbLine
 10
-3.56315092
 20
4.16803028
 30
0.0
 11
-3.20262178
 21
4.26463377
 31
0.0
  0
LINE
  5
2F8
100
AcDbEntity
  8
0
 62
     7
100
AcDbLine
 10
-3.70262178
 20
3.71787548
 30
0.0
 11
-3.70262178
 21
4.13309454
 31
0.0
  0
LINE
  5
2F9
100
AcDbEntity
  8
0
 62
     7
100
AcDbLine
 10
-3.60997416
 20
4.25383526
 30
0.0
 11
-3.22720959
 21
4.35639672
 31
0.0
  0
LINE
  5
2FA
100
AcDbEntity
  8
0
 62
     7
100
AcDbLine
 10
-3.60997416
 20
3.59713475
 30
0.0
 11
-3.22720959
 21
3.49457329
 31
0.0
  0
ARC
  5
2FB
100
AcDbEntity
  8
0
 62
     7
100
AcDbCircle
 10
-4.80850471
 20
3.92548501
 30
0.0
 40
0.219
100
AcDbArc
 50
110.0
 51
250.0
  0
LINE
  5
2FC
100
AcDbEntity
  8
0
 62
     7
100
AcDbLine
 10
-4.88340712
 20
4.13127769
 30
0.0
 11
-4.55999662
 21
4.24898948
 31
0.0
  0
LINE
  5
2FD
100
AcDbEntity
  8
0
 62
     7
100
AcDbLine
 10
-4.88340712
 20
3.71969232
 30
0.0
 11
-4.55999662
 21
3.60198053
 31
0.0
  0
ARC
  5
2FE
100
AcDbEntity
  8
0
 62
     7
100
AcDbCircle
 10
14.48166271
 20
8.73798501
 30
0.0
 40
4.625
100
AcDbArc
 50
192.0039071
 51
252.70465537
  0
LINE
  5
2FF
100
AcDbEntity
  8
0
 62
     7
100
AcDbLine
 10
10.0889023
 20
8.86298501
 30
0.0
 11
9.30367951
 21
8.86298501
 31
0.0
  0
LINE
  5
300
100
AcDbEntity
  8
0
 62
     7
100
AcDbLine
 10
9.77390656
 20
9.55098501
 30
0.0
 11
9.05367951
 21
9.55098501
 31
0.0
  0
LINE
  5
301
100
AcDbEntity
  8
0
 62
     7
100
AcDbLine
 10
9.05367951
 20
9.55098501
 30
0.0
 11
9.05367951
 21
9.11298501
 31
0.0
  0
ARC
  5
302
100
AcDbEntity
  8
0
 62
     7
100
AcDbCircle
 10
14.48166271
 20
8.73798501
 30
0.0
 40
3.937
100
AcDbArc
 50
188.09766831
 51
249.60561673
  0
LINE
  5
303
100
AcDbEntity
  8
0
 62
     7
100
AcDbLine
 10
10.0889023
 20
8.61298501
 30
0.0
 11
9.30367951
 21
8.61298501
 31
0.0
  0
LINE
  5
304
100
AcDbEntity
  8
0
 62
     7
100
AcDbLine
 10
9.77390656
 20
7.92498501
 30
0.0
 11
9.05367951
 21
7.92498501
 31
0.0
  0
LINE
  5
305
100
AcDbEntity
  8
0
 62
     7
100
AcDbLine
 10
9.05367951
 20
7.92498501
 30
0.0
 11
9.05367951
 21
8.36298501
 31
0.0
  0
ARC
  5
306
100
AcDbEntity
  8
0
 62
     7
100
AcDbCircle
 10
10.0889023
 20
9.36298501
 30
0.0
 40
0.5
100
AcDbArc
 50
270.0
 51
351.90233169
  0
ARC
  5
307
100
AcDbEntity
  8
0
 62
     7
100
AcDbCircle
 10
9.77390656
 20
9.73898501
 30
0.0
 40
0.188
100
AcDbArc
 50
270.0
 51
347.9960929
  0
ARC
  5
308
100
AcDbEntity
  8
0
 62
     7
100
AcDbCircle
 10
9.30367951
 20
9.11298501
 30
0.0
 40
0.25
100
AcDbArc
 50
180.0
 51
270.0
  0
ARC
  5
309
100
AcDbEntity
  8
0
 62
     7
100
AcDbCircle
 10
9.30367951
 20
8.36298501
 30
0.0
 40
0.25
100
AcDbArc
 50
90.0
 51
180.0
  0
ARC
  5
30A
100
AcDbEntity
  8
0
 62
     7
100
AcDbCircle
 10
9.77390656
 20
7.73698501
 30
0.0
 40
0.188
100
AcDbArc
 50
12.0039071
 51
90.0
  0
ARC
  5
30B
100
AcDbEntity
  8
0
 62
     7
100
AcDbCircle
 10
10.0889023
 20
8.11298501
 30
0.0
 40
0.5
100
AcDbArc
 50
8.09766831
 51
90.0
  0
ARC
  5
30C
100
AcDbEntity
  8
0
 62
     7
100
AcDbCircle
 10
18.87442312
 20
8.11298501
 30
0.0
 40
0.5
100
AcDbArc
 50
90.0
 51
171.90233169
  0
ARC
  5
30D
100
AcDbEntity
  8
0
 62
     7
100
AcDbCircle
 10
19.18941887
 20
7.73698501
 30
0.0
 40
0.188
100
AcDbArc
 50
90.0
 51
167.9960929
  0
ARC
  5
30E
100
AcDbEntity
  8
0
 62
     7
100
AcDbCircle
 10
19.65964591
 20
8.36298501
 30
0.0
 40
0.25
100
AcDbArc
 50
0.0
 51
90.0
  0
ARC
  5
30F
100
AcDbEntity
  8
0
 62
     7
100
AcDbCircle
 10
19.65964591
 20
9.11298501
 30
0.0
 40
0.25
100
AcDbArc
 50
270.0
 51
0.0
  0
ARC
  5
310
100
AcDbEntity
  8
0
 62
     7
100
AcDbCircle
 10
19.18941887
 20
9.73898501
 30
0.0
 40
0.188
100
AcDbArc
 50
192.0039071
 51
270.0
  0
ARC
  5
311
100
AcDbEntity
  8
0
 62
     7
100
AcDbCircle
 10
18.87442312
 20
9.36298501
 30
0.0
 40
0.5
100
AcDbArc
 50
188.09766831
 51
270.0
  0
LINE
  5
312
100
AcDbEntity
  8
0
 62
     7
100
AcDbLine
 10
19.90964591
 20
7.92498501
 30
0.0
 11
19.90964591
 21
8.36298501
 31
0.0
  0
LINE
  5
313
100
AcDbEntity
  8
0
 62
     7
100
AcDbLine
 10
19.18941887
 20
7.92498501
 30
0.0
 11
19.90964591
 21
7.92498501
 31
0.0
  0
LINE
  5
314
100
AcDbEntity
  8
0
 62
     7
100
AcDbLine
 10
18.87442312
 20
8.61298501
 30
0.0
 11
19.65964591
 21
8.61298501
 31
0.0
  0
LINE
  5
315
100
AcDbEntity
  8
0
 62
     7
100
AcDbLine
 10
19.90964591
 20
9.55098501
 30
0.0
 11
19.90964591
 21
9.11298501
 31
0.0
  0
LINE
  5
316
100
AcDbEntity
  8
0
 62
     7
100
AcDbLine
 10
19.18941887
 20
9.55098501
 30
0.0
 11
19.90964591
 21
9.55098501
 31
0.0
  0
LINE
  5
317
100
AcDbEntity
  8
0
 62
     7
100
AcDbLine
 10
18.87442312
 20
8.86298501
 30
0.0
 11
19.65964591
 21
8.86298501
 31
0.0
  0
ARC
  5
318
100
AcDbEntity
  8
0
 62
     7
100
AcDbCircle
 10
14.48166271
 20
8.73798501
 30
0.0
 40
4.625
100
AcDbArc
 50
12.0039071
 51
72.72173632
  0
ARC
  5
319
100
AcDbEntity
  8
0
 62
     7
100
AcDbCircle
 10
14.48166271
 20
8.73798501
 30
0.0
 40
3.937
100
AcDbArc
 50
8.09766831
 51
77.1587531
  0
ARC
  5
31A
100
AcDbEntity
  8
0
 62
     7
100
AcDbCircle
 10
14.48166271
 20
8.73798501
 30
0.0
 40
3.937
100
AcDbArc
 50
290.39438327
 51
351.90233169
  0
ARC
  5
31B
100
AcDbEntity
  8
0
 62
     7
100
AcDbCircle
 10
14.48166271
 20
8.73798501
 30
0.0
 40
4.625
100
AcDbArc
 50
287.29534463
 51
347.9960929
  0
ARC
  5
31C
100
AcDbEntity
  8
0
 62
     7
100
AcDbCircle
 10
14.48166271
 20
8.73798501
 30
0.0
 40
4.625
100
AcDbArc
 50
107.27826368
 51
167.9960929
  0
ARC
  5
31D
100
AcDbEntity
  8
0
 62
     7
100
AcDbCircle
 10
14.48166271
 20
8.73798501
 30
0.0
 40
3.937
100
AcDbArc
 50
102.8412469
 51
171.90233169
  0
LINE
  5
31E
100
AcDbEntity
  8
0
 62
     7
100
AcDbLine
 10
9.16055045
 20
9.55098501
 30
0.0
 11
9.16055045
 21
9.80098501
 31
0.0
  0
LINE
  5
31F
100
AcDbEntity
  8
0
 62
     7
100
AcDbLine
 10
9.71153192
 20
9.55098501
 30
0.0
 11
9.71153192
 21
9.80098501
 31
0.0
  0
LINE
  5
320
100
AcDbEntity
  8
0
 62
     7
100
AcDbLine
 10
9.16055045
 20
9.80098501
 30
0.0
 11
9.71153192
 21
9.80098501
 31
0.0
  0
LINE
  5
321
100
AcDbEntity
  8
0
 62
     7
100
AcDbLine
 10
9.31104118
 20
9.80098501
 30
0.0
 11
9.31104118
 21
10.05098501
 31
0.0
  0
LINE
  5
322
100
AcDbEntity
  8
0
 62
     7
100
AcDbLine
 10
9.56104118
 20
9.80098501
 30
0.0
 11
9.56104118
 21
10.05098501
 31
0.0
  0
LINE
  5
323
100
AcDbEntity
  8
0
 62
     7
100
AcDbLine
 10
9.31104118
 20
10.05098501
 30
0.0
 11
9.56104118
 21
10.05098501
 31
0.0
  0
ARC
  5
324
100
AcDbEntity
  8
0
 62
     7
100
AcDbCircle
 10
9.43604118
 20
8.13986184
 30
0.0
 40
0.34938117
100
AcDbArc
 50
217.95346362
 51
322.04653638
  0
LINE
  5
325
100
AcDbEntity
  8
0
 62
     7
100
AcDbLine
 10
9.56104118
 20
8.61298501
 30
0.0
 11
9.56104118
 21
8.86298501
 31
0.0
  0
LINE
  5
326
100
AcDbEntity
  8
0
 62
     7
100
AcDbLine
 10
9.31104118
 20
8.61298501
 30
0.0
 11
9.31104118
 21
8.86298501
 31
0.0
  0
LINE
  5
327
100
AcDbEntity
  8
0
 62
     7
100
AcDbLine
 10
19.65228424
 20
8.61298501
 30
0.0
 11
19.65228424
 21
8.86298501
 31
0.0
  0
LINE
  5
328
100
AcDbEntity
  8
0
 62
     7
100
AcDbLine
 10
19.40228424
 20
8.61298501
 30
0.0
 11
19.40228424
 21
8.86298501
 31
0.0
  0
ARC
  5
329
100
AcDbEntity
  8
0
 62
     7
100
AcDbCircle
 10
19.52728424
 20
8.13986184
 30
0.0
 40
0.34938117
100
AcDbArc
 50
217.95346362
 51
322.04653638
  0
LINE
  5
32A
100
AcDbEntity
  8
0
 62
     7
100
AcDbLine
 10
19.65228424
 20
10.05098501
 30
0.0
 11
19.40228424
 21
10.05098501
 31
0.0
  0
LINE
  5
32B
100
AcDbEntity
  8
0
 62
     7
100
AcDbLine
 10
19.40228424
 20
9.80098501
 30
0.0
 11
19.40228424
 21
10.05098501
 31
0.0
  0
LINE
  5
32C
100
AcDbEntity
  8
0
 62
     7
100
AcDbLine
 10
19.65228424
 20
9.80098501
 30
0.0
 11
19.65228424
 21
10.05098501
 31
0.0
  0
LINE
  5
32D
100
AcDbEntity
  8
0
 62
     7
100
AcDbLine
 10
19.80277497
 20
9.80098501
 30
0.0
 11
19.25179351
 21
9.80098501
 31
0.0
  0
LINE
  5
32E
100
AcDbEntity
  8
0
 62
     7
100
AcDbLine
 10
19.25179351
 20
9.55098501
 30
0.0
 11
19.25179351
 21
9.80098501
 31
0.0
  0
LINE
  5
32F
100
AcDbEntity
  8
0
 62
     7
100
AcDbLine
 10
19.80277497
 20
9.55098501
 30
0.0
 11
19.80277497
 21
9.80098501
 31
0.0
  0
LINE
  5
330
100
AcDbEntity
  8
0
 62
     7
100
AcDbLine
 10
16.28744806
 20
13.34469232
 30
0.0
 11
15.96403756
 21
13.22698053
 31
0.0
  0
ARC
  5
331
100
AcDbEntity
  8
0
 62
     7
100
AcDbCircle
 10
16.21254564
 20
13.55048501
 30
0.0
 40
0.219
100
AcDbArc
 50
290.0
 51
70.0
  0
LINE
  5
332
100
AcDbEntity
  8
0
 62
     7
100
AcDbLine
 10
16.28744806
 20
13.75627769
 30
0.0
 11
15.96403756
 21
13.87398948
 31
0.0
  0
LINE
  5
333
100
AcDbEntity
  8
0
 62
     7
100
AcDbLine
 10
12.67587737
 20
13.75627769
 30
0.0
 11
12.99928787
 21
13.87398948
 31
0.0
  0
ARC
  5
334
100
AcDbEntity
  8
0
 62
     7
100
AcDbCircle
 10
12.75077978
 20
13.55048501
 30
0.0
 40
0.219
100
AcDbArc
 50
110.0
 51
250.0
  0
LINE
  5
335
100
AcDbEntity
  8
0
 62
     7
100
AcDbLine
 10
12.67587737
 20
13.34469232
 30
0.0
 11
12.99928787
 21
13.22698053
 31
0.0
  0
LINE
  5
336
100
AcDbEntity
  8
0
 62
     7
100
AcDbLine
 10
12.99928787
 20
13.87398948
 30
0.0
 11
15.96403756
 21
13.87398948
 31
0.0
  0
LINE
  5
337
100
AcDbEntity
  8
0
 62
     7
100
AcDbLine
 10
12.99928787
 20
13.22698053
 30
0.0
 11
15.96403756
 21
13.22698053
 31
0.0
  0
ARC
  5
338
100
AcDbEntity
  8
0
 62
     7
100
AcDbCircle
 10
13.48166271
 20
17.73948501
 30
0.0
 40
0.125
100
AcDbArc
 50
90.0
 51
180.0
  0
ARC
  5
339
100
AcDbEntity
  8
0
 62
     7
100
AcDbCircle
 10
15.48166271
 20
17.73948501
 30
0.0
 40
0.125
100
AcDbArc
 50
0.0
 51
90.0
  0
LINE
  5
33A
100
AcDbEntity
  8
0
 62
     7
100
AcDbLine
 10
15.60666271
 20
16.55148501
 30
0.0
 11
15.36107404
 21
16.30589633
 31
0.0
  0
LINE
  5
33B
100
AcDbEntity
  8
0
 62
     7
100
AcDbLine
 10
13.35666271
 20
16.55148501
 30
0.0
 11
13.60225139
 21
16.30589633
 31
0.0
  0
LINE
  5
33C
100
AcDbEntity
  8
0
 62
     7
100
AcDbLine
 10
15.35678727
 20
16.55148501
 30
0.0
 11
15.60666271
 21
16.55148501
 31
0.0
  0
LINE
  5
33D
100
AcDbEntity
  8
0
 62
     7
100
AcDbLine
 10
13.35666271
 20
16.55148501
 30
0.0
 11
13.60653815
 21
16.55148501
 31
0.0
  0
LINE
  5
33E
100
AcDbEntity
  8
0
 62
     7
100
AcDbLine
 10
15.60666271
 20
16.55148501
 30
0.0
 11
15.60666271
 21
17.73948501
 31
0.0
  0
LINE
  5
33F
100
AcDbEntity
  8
0
 62
     7
100
AcDbLine
 10
13.35666271
 20
16.55148501
 30
0.0
 11
13.35666271
 21
17.73948501
 31
0.0
  0
LINE
  5
340
100
AcDbEntity
  8
0
 62
     7
100
AcDbLine
 10
13.48166271
 20
17.86448501
 30
0.0
 11
15.48166271
 21
17.86448501
 31
0.0
  0
ARC
  5
341
100
AcDbEntity
  8
0
 62
     7
100
AcDbCircle
 10
14.48166271
 20
12.96917642
 30
0.0
 40
2.77508903
100
AcDbArc
 50
72.97677989
 51
106.7223288
  0
ARC
  5
342
100
AcDbEntity
  8
0
 62
     7
100
AcDbCircle
 10
14.48166271
 20
14.55048501
 30
0.0
 40
1.375
100
AcDbArc
 50
130.43387982
 51
180.0
  0
ARC
  5
343
100
AcDbEntity
  8
0
 62
     7
100
AcDbCircle
 10
14.48166271
 20
14.55048501
 30
0.0
 40
1.375
100
AcDbArc
 50
0.0
 51
49.56612018
  0
LINE
  5
344
100
AcDbEntity
  8
0
 62
     7
100
AcDbLine
 10
13.60679598
 20
16.56625586
 30
0.0
 11
13.58987883
 21
15.59707304
 31
0.0
  0
LINE
  5
345
100
AcDbEntity
  8
0
 62
     7
100
AcDbLine
 10
15.35652945
 20
16.56625586
 30
0.0
 11
15.37344659
 21
15.59707304
 31
0.0
  0
ARC
  5
346
100
AcDbEntity
  8
0
 62
     7
100
AcDbCircle
 10
14.48166271
 20
16.55098501
 30
0.0
 40
0.875
100
AcDbArc
 50
1.0
 51
179.0
  0
LINE
  5
347
100
AcDbEntity
  8
0
 62
     7
100
AcDbLine
 10
15.85666271
 20
13.87398948
 30
0.0
 11
15.85666271
 21
14.55048501
 31
0.0
  0
LINE
  5
348
100
AcDbEntity
  8
0
 62
     7
100
AcDbLine
 10
13.10666271
 20
13.87398948
 30
0.0
 11
13.10666271
 21
14.55048501
 31
0.0
  0
LINE
  5
349
100
AcDbEntity
  8
0
 62
     7
100
AcDbLine
 10
11.90377978
 20
13.18457329
 30
0.0
 11
11.90377978
 21
13.91639672
 31
0.0
  0
LINE
  5
34A
100
AcDbEntity
  8
0
 62
     7
100
AcDbLine
 10
11.90377978
 20
13.91639672
 30
0.0
 11
12.53177978
 21
13.91639672
 31
0.0
  0
LINE
  5
34B
100
AcDbEntity
  8
0
 62
     7
100
AcDbLine
 10
11.90377978
 20
13.18457329
 30
0.0
 11
12.53177978
 21
13.18457329
 31
0.0
  0
LINE
  5
34C
100
AcDbEntity
  8
0
 62
     7
100
AcDbLine
 10
12.53177978
 20
13.91639672
 30
0.0
 11
12.99928787
 21
13.87398948
 31
0.0
  0
LINE
  5
34D
100
AcDbEntity
  8
0
 62
     7
100
AcDbLine
 10
16.43154564
 20
13.91639672
 30
0.0
 11
15.96403756
 21
13.87398948
 31
0.0
  0
LINE
  5
34E
100
AcDbEntity
  8
0
 62
     7
100
AcDbLine
 10
17.05954564
 20
13.91639672
 30
0.0
 11
16.43154564
 21
13.91639672
 31
0.0
  0
LINE
  5
34F
100
AcDbEntity
  8
0
 62
     7
100
AcDbLine
 10
17.05954564
 20
13.18457329
 30
0.0
 11
17.05954564
 21
13.91639672
 31
0.0
  0
LINE
  5
350
100
AcDbEntity
  8
0
 62
     7
100
AcDbLine
 10
17.05954564
 20
13.18457329
 30
0.0
 11
16.43154564
 21
13.18457329
 31
0.0
  0
LINE
  5
351
100
AcDbEntity
  8
0
 62
     7
100
AcDbLine
 10
12.53177978
 20
13.18457329
 30
0.0
 11
12.99928787
 21
13.22698053
 31
0.0
  0
LINE
  5
352
100
AcDbEntity
  8
0
 62
     7
100
AcDbLine
 10
16.43154564
 20
13.18457329
 30
0.0
 11
15.96403756
 21
13.22698053
 31
0.0
  0
CIRCLE
  5
353
100
AcDbEntity
  8
0
 62
     7
100
AcDbCircle
 10
12.18970107
 20
13.55048501
 30
0.0
 40
0.094
  0
POLYLINE
  5
354
100
AcDbEntity
  8
0
 62
     7
100
AcDb2dPolyline
 66
     1
 10
0.0
 20
0.0
 30
0.0
 70
     1
  0
VERTEX
  5
355
100
AcDbEntity
  8
0
 62
     7
100
AcDbVertex
100
AcDb2dVertex
 10
12.30159262
 20
13.35668316
 30
0.0
  0
VERTEX
  5
356
100
AcDbEntity
  8
0
 62
     7
100
AcDbVertex
100
AcDb2dVertex
 10
12.41348417
 20
13.55048501
 30
0.0
  0
VERTEX
  5
357
100
AcDbEntity
  8
0
 62
     7
100
AcDbVertex
100
AcDb2dVertex
 10
12.30159262
 20
13.74428686
 30
0.0
  0
VERTEX
  5
358
100
AcDbEntity
  8
0
 62
     7
100
AcDbVertex
100
AcDb2dVertex
 10
12.07780952
 20
13.74428686
 30
0.0
  0
VERTEX
  5
359
100
AcDbEntity
  8
0
 62
     7
100
AcDbVertex
100
AcDb2dVertex
 10
11.96591797
 20
13.55048501
 30
0.0
  0
VERTEX
  5
35A
100
AcDbEntity
  8
0
 62
     7
100
AcDbVertex
100
AcDb2dVertex
 10
12.07780952
 20
13.35668316
 30
0.0
  0
SEQEND
  5
35B
100
AcDbEntity
  8
0
 62
     7
  0
POLYLINE
  5
35C
100
AcDbEntity
  8
0
 62
     7
100
AcDb2dPolyline
 66
     1
 10
0.0
 20
0.0
 30
0.0
 70
     1
  0
VERTEX
  5
35D
100
AcDbEntity
  8
0
 62
     7
100
AcDbVertex
100
AcDb2dVertex
 10
16.6617328
 20
13.35668316
 30
0.0
  0
VERTEX
  5
35E
100
AcDbEntity
  8
0
 62
     7
100
AcDbVertex
100
AcDb2dVertex
 10
16.54984125
 20
13.55048501
 30
0.0
  0
VERTEX
  5
35F
100
AcDbEntity
  8
0
 62
     7
100
AcDbVertex
100
AcDb2dVertex
 10
16.6617328
 20
13.74428686
 30
0.0
  0
VERTEX
  5
360
100
AcDbEntity
  8
0
 62
     7
100
AcDbVertex
100
AcDb2dVertex
 10
16.8855159
 20
13.74428686
 30
0.0
  0
VERTEX
  5
361
100
AcDbEntity
  8
0
 62
     7
100
AcDbVertex
100
AcDb2dVertex
 10
16.99740745
 20
13.55048501
 30
0.0
  0
VERTEX
  5
362
100
AcDbEntity
  8
0
 62
     7
100
AcDbVertex
100
AcDb2dVertex
 10
16.8855159
 20
13.35668316
 30
0.0
  0
SEQEND
  5
363
100
AcDbEntity
  8
0
 62
     7
  0
CIRCLE
  5
364
100
AcDbEntity
  8
0
 62
     7
100
AcDbCircle
 10
16.77362435
 20
13.55048501
 30
0.0
 40
0.094
  0
CIRCLE
  5
365
100
AcDbEntity
  8
0
 62
     7
100
AcDbCircle
 10
16.77362435
 20
3.92548501
 30
0.0
 40
0.094
  0
POLYLINE
  5
366
100
AcDbEntity
  8
0
 62
     7
100
AcDb2dPolyline
 66
     1
 10
0.0
 20
0.0
 30
0.0
 70
     1
  0
VERTEX
  5
367
100
AcDbEntity
  8
0
 62
     7
100
AcDbVertex
100
AcDb2dVertex
 10
16.6617328
 20
4.11928686
 30
0.0
  0
VERTEX
  5
368
100
AcDbEntity
  8
0
 62
     7
100
AcDbVertex
100
AcDb2dVertex
 10
16.54984125
 20
3.92548501
 30
0.0
  0
VERTEX
  5
369
100
AcDbEntity
  8
0
 62
     7
100
AcDbVertex
100
AcDb2dVertex
 10
16.6617328
 20
3.73168316
 30
0.0
  0
VERTEX
  5
36A
100
AcDbEntity
  8
0
 62
     7
100
AcDbVertex
100
AcDb2dVertex
 10
16.8855159
 20
3.73168316
 30
0.0
  0
VERTEX
  5
36B
100
AcDbEntity
  8
0
 62
     7
100
AcDbVertex
100
AcDb2dVertex
 10
16.99740745
 20
3.92548501
 30
0.0
  0
VERTEX
  5
36C
100
AcDbEntity
  8
0
 62
     7
100
AcDbVertex
100
AcDb2dVertex
 10
16.8855159
 20
4.11928686
 30
0.0
  0
SEQEND
  5
36D
100
AcDbEntity
  8
0
 62
     7
  0
POLYLINE
  5
36E
100
AcDbEntity
  8
0
 62
     7
100
AcDb2dPolyline
 66
     1
 10
0.0
 20
0.0
 30
0.0
 70
     1
  0
VERTEX
  5
36F
100
AcDbEntity
  8
0
 62
     7
100
AcDbVertex
100
AcDb2dVertex
 10
12.30159262
 20
4.11928686
 30
0.0
  0
VERTEX
  5
370
100
AcDbEntity
  8
0
 62
     7
100
AcDbVertex
100
AcDb2dVertex
 10
12.41348417
 20
3.92548501
 30
0.0
  0
VERTEX
  5
371
100
AcDbEntity
  8
0
 62
     7
100
AcDbVertex
100
AcDb2dVertex
 10
12.30159262
 20
3.73168316
 30
0.0
  0
VERTEX
  5
372
100
AcDbEntity
  8
0
 62
     7
100
AcDbVertex
100
AcDb2dVertex
 10
12.07780952
 20
3.73168316
 30
0.0
  0
VERTEX
  5
373
100
AcDbEntity
  8
0
 62
     7
100
AcDbVertex
100
AcDb2dVertex
 10
11.96591797
 20
3.92548501
 30
0.0
  0
VERTEX
  5
374
100
AcDbEntity
  8
0
 62
     7
100
AcDbVertex
100
AcDb2dVertex
 10
12.07780952
 20
4.11928686
 30
0.0
  0
SEQEND
  5
375
100
AcDbEntity
  8
0
 62
     7
  0
CIRCLE
  5
376
100
AcDbEntity
  8
0
 62
     7
100
AcDbCircle
 10
12.18970107
 20
3.92548501
 30
0.0
 40
0.094
  0
LINE
  5
377
100
AcDbEntity
  8
0
 62
     7
100
AcDbLine
 10
16.43154564
 20
4.29139672
 30
0.0
 11
15.96403756
 21
4.24898948
 31
0.0
  0
LINE
  5
378
100
AcDbEntity
  8
0
 62
     7
100
AcDbLine
 10
12.53177978
 20
4.29139672
 30
0.0
 11
12.99928787
 21
4.24898948
 31
0.0
  0
LINE
  5
379
100
AcDbEntity
  8
0
 62
     7
100
AcDbLine
 10
17.05954564
 20
4.29139672
 30
0.0
 11
16.43154564
 21
4.29139672
 31
0.0
  0
LINE
  5
37A
100
AcDbEntity
  8
0
 62
     7
100
AcDbLine
 10
17.05954564
 20
4.29139672
 30
0.0
 11
17.05954564
 21
3.55957329
 31
0.0
  0
LINE
  5
37B
100
AcDbEntity
  8
0
 62
     7
100
AcDbLine
 10
17.05954564
 20
3.55957329
 30
0.0
 11
16.43154564
 21
3.55957329
 31
0.0
  0
LINE
  5
37C
100
AcDbEntity
  8
0
 62
     7
100
AcDbLine
 10
16.43154564
 20
3.55957329
 30
0.0
 11
15.96403756
 21
3.60198053
 31
0.0
  0
LINE
  5
37D
100
AcDbEntity
  8
0
 62
     7
100
AcDbLine
 10
12.53177978
 20
3.55957329
 30
0.0
 11
12.99928787
 21
3.60198053
 31
0.0
  0
LINE
  5
37E
100
AcDbEntity
  8
0
 62
     7
100
AcDbLine
 10
11.90377978
 20
4.29139672
 30
0.0
 11
12.53177978
 21
4.29139672
 31
0.0
  0
LINE
  5
37F
100
AcDbEntity
  8
0
 62
     7
100
AcDbLine
 10
11.90377978
 20
3.55957329
 30
0.0
 11
12.53177978
 21
3.55957329
 31
0.0
  0
LINE
  5
380
100
AcDbEntity
  8
0
 62
     7
100
AcDbLine
 10
11.90377978
 20
4.29139672
 30
0.0
 11
11.90377978
 21
3.55957329
 31
0.0
  0
LINE
  5
381
100
AcDbEntity
  8
0
 62
     7
100
AcDbLine
 10
12.99928787
 20
4.24898948
 30
0.0
 11
15.96403756
 21
4.24898948
 31
0.0
  0
LINE
  5
382
100
AcDbEntity
  8
0
 62
     7
100
AcDbLine
 10
12.99928787
 20
3.60198053
 30
0.0
 11
15.96403756
 21
3.60198053
 31
0.0
  0
LINE
  5
383
100
AcDbEntity
  8
0
 62
     7
100
AcDbLine
 10
12.67587737
 20
4.13127769
 30
0.0
 11
12.99928787
 21
4.24898948
 31
0.0
  0
ARC
  5
384
100
AcDbEntity
  8
0
 62
     7
100
AcDbCircle
 10
12.75077978
 20
3.92548501
 30
0.0
 40
0.219
100
AcDbArc
 50
110.0
 51
250.0
  0
LINE
  5
385
100
AcDbEntity
  8
0
 62
     7
100
AcDbLine
 10
12.67587737
 20
3.71969232
 30
0.0
 11
12.99928787
 21
3.60198053
 31
0.0
  0
LINE
  5
386
100
AcDbEntity
  8
0
 62
     7
100
AcDbLine
 10
16.28744806
 20
3.71969232
 30
0.0
 11
15.96403756
 21
3.60198053
 31
0.0
  0
ARC
  5
387
100
AcDbEntity
  8
0
 62
     7
100
AcDbCircle
 10
16.21254564
 20
3.92548501
 30
0.0
 40
0.219
100
AcDbArc
 50
290.0
 51
70.0
  0
LINE
  5
388
100
AcDbEntity
  8
0
 62
     7
100
AcDbLine
 10
16.28744806
 20
4.13127769
 30
0.0
 11
15.96403756
 21
4.24898948
 31
0.0
  0
LINE
  5
389
100
AcDbEntity
  8
0
 62
     7
100
AcDbLine
 10
16.48166271
 20
4.29139672
 30
0.0
 11
16.48166271
 21
4.56777818
 31
0.0
  0
LINE
  5
38A
100
AcDbEntity
  8
0
 62
     7
100
AcDbLine
 10
-8.62462178
 20
9.70698501
 30
0.0
 11
-8.62462178
 21
10.12726493
 31
0.0
  0
LINE
  5
38B
100
AcDbEntity
  8
0
 62
     7
100
AcDbLine
 10
-7.87462178
 20
9.70698501
 30
0.0
 11
-7.87462178
 21
10.12726493
 31
0.0
  0
LINE
  5
38C
100
AcDbEntity
  8
0
 62
     7
100
AcDbLine
 10
-8.74962178
 20
10.12726493
 30
0.0
 11
-7.74962178
 21
10.12726493
 31
0.0
  0
LINE
  5
38D
100
AcDbEntity
  8
0
 62
     7
100
AcDbLine
 10
-8.74962178
 20
10.12726493
 30
0.0
 11
-8.74962178
 21
10.37726493
 31
0.0
  0
LINE
  5
38E
100
AcDbEntity
  8
0
 62
     7
100
AcDbLine
 10
-7.74962178
 20
10.12726493
 30
0.0
 11
-7.74962178
 21
10.37726493
 31
0.0
  0
LINE
  5
38F
100
AcDbEntity
  8
0
 62
     7
100
AcDbLine
 10
-8.74962178
 20
10.37726493
 30
0.0
 11
-7.74962178
 21
10.37726493
 31
0.0
  0
LINE
  5
390
100
AcDbEntity
  8
0
 62
     7
100
AcDbLine
 10
-7.07962178
 20
10.98798501
 30
0.0
 11
-9.41962178
 21
10.98798501
 31
0.0
  0
LINE
  5
391
100
AcDbEntity
  8
0
 62
     7
100
AcDbLine
 10
-7.07962178
 20
6.48798501
 30
0.0
 11
-9.41962178
 21
6.48798501
 31
0.0
  0
ARC
  5
392
100
AcDbEntity
  8
0
 62
     7
100
AcDbCircle
 10
-8.24962178
 20
-3.92158974
 30
0.0
 40
9.0
100
AcDbArc
 50
75.41126911
 51
104.58873089
  0
LINE
  5
393
100
AcDbEntity
  8
0
 62
     7
100
AcDbLine
 10
-10.51653297
 20
4.78823883
 30
0.0
 11
-9.59159226
 21
5.59227752
 31
0.0
  0
ARC
  5
394
100
AcDbEntity
  8
0
 62
     7
100
AcDbCircle
 10
-9.91962178
 20
5.96963231
 30
0.0
 40
0.5
100
AcDbArc
 50
340.99857582
 51
0.0
  0
ARC
  5
395
100
AcDbEntity
  8
0
 62
     7
100
AcDbCircle
 10
-6.57962178
 20
5.96963231
 30
0.0
 40
0.5
100
AcDbArc
 50
180.0
 51
199.00142418
  0
LINE
  5
396
100
AcDbEntity
  8
0
 62
     7
100
AcDbLine
 10
-5.98271059
 20
4.78823883
 30
0.0
 11
-6.90765129
 21
5.59227752
 31
0.0
  0
ARC
  5
397
100
AcDbEntity
  8
0
 62
     7
100
AcDbCircle
 10
-8.24962178
 20
21.39755975
 30
0.0
 40
9.0
100
AcDbArc
 50
255.41126911
 51
284.58873089
  0
LINE
  5
398
100
AcDbEntity
  8
0
 62
     7
100
AcDbLine
 10
-5.98271059
 20
12.68773118
 30
0.0
 11
-6.90765129
 21
11.88369249
 31
0.0
  0
ARC
  5
399
100
AcDbEntity
  8
0
 62
     7
100
AcDbCircle
 10
-6.57962178
 20
11.5063377
 30
0.0
 40
0.5
100
AcDbArc
 50
160.99857582
 51
180.0
  0
ARC
  5
39A
100
AcDbEntity
  8
0
 62
     7
100
AcDbCircle
 10
-9.91962178
 20
11.5063377
 30
0.0
 40
0.5
100
AcDbArc
 50
0.0
 51
19.00142418
  0
LINE
  5
39B
100
AcDbEntity
  8
0
 62
     7
100
AcDbLine
 10
-10.51653297
 20
12.68773118
 30
0.0
 11
-9.59159226
 21
11.88369249
 31
0.0
  0
LINE
  5
39C
100
AcDbEntity
  8
0
 62
     7
100
AcDbLine
 10
-9.41962178
 20
5.96963231
 30
0.0
 11
-9.41962178
 21
11.5063377
 31
0.0
  0
LINE
  5
39D
100
AcDbEntity
  8
0
 62
     7
100
AcDbLine
 10
-7.07962178
 20
11.5063377
 30
0.0
 11
-7.07962178
 21
5.96963231
 31
0.0
  0
LINE
  5
39E
100
AcDbEntity
  8
0
 62
     7
100
AcDbLine
 10
-5.98271059
 20
8.92598501
 30
0.0
 11
-6.7048814
 21
8.92598501
 31
0.0
  0
LINE
  5
39F
100
AcDbEntity
  8
0
 62
     7
100
AcDbLine
 10
-5.98271059
 20
8.54998501
 30
0.0
 11
-6.7048814
 21
8.54998501
 31
0.0
  0
POLYLINE
  5
3A0
100
AcDbEntity
  8
0
 62
     7
100
AcDb2dPolyline
 66
     1
 10
0.0
 20
0.0
 30
0.0
  0
VERTEX
  5
3A1
100
AcDbEntity
  8
0
 62
     7
100
AcDbVertex
100
AcDb2dVertex
 10
-6.7048814
 20
8.92598501
 30
0.0
 42
0.05126659
  0
VERTEX
  5
3A2
100
AcDbEntity
  8
0
 62
     7
100
AcDbVertex
100
AcDb2dVertex
 10
-6.85641538
 20
8.9104068
 30
0.0
 42
0.06511787
  0
VERTEX
  5
3A3
100
AcDbEntity
  8
0
 62
     7
100
AcDbVertex
100
AcDb2dVertex
 10
-6.96986286
 20
8.87092108
 30
0.0
 42
0.10427987
 70
     2
 50
206.64203495
  0
VERTEX
  5
3A4
100
AcDbEntity
  8
0
 62
     7
100
AcDbVertex
100
AcDb2dVertex
 10
-7.05671088
 20
8.8017187
 30
0.0
 42
0.17427997
 50
206.64203495
  0
VERTEX
  5
3A5
100
AcDbEntity
  8
0
 62
     7
100
AcDbVertex
100
AcDb2dVertex
 10
-7.07962178
 20
8.73798501
 30
0.0
 42
0.17427997
  0
VERTEX
  5
3A6
100
AcDbEntity
  8
0
 62
     7
100
AcDbVertex
100
AcDb2dVertex
 10
-7.05671088
 20
8.67425131
 30
0.0
 42
0.10427987
  0
VERTEX
  5
3A7
100
AcDbEntity
  8
0
 62
     7
100
AcDbVertex
100
AcDb2dVertex
 10
-6.96986286
 20
8.60504893
 30
0.0
 42
0.06511787
 70
     2
 50
333.35796505
  0
VERTEX
  5
3A8
100
AcDbEntity
  8
0
 62
     7
100
AcDbVertex
100
AcDb2dVertex
 10
-6.85641538
 20
8.56556321
 30
0.0
 42
0.05126659
 50
333.35796505
  0
VERTEX
  5
3A9
100
AcDbEntity
  8
0
 62
     7
100
AcDbVertex
100
AcDb2dVertex
 10
-6.7048814
 20
8.54998501
 30
0.0
 42
0.05126659
  0
SEQEND
  5
3AA
100
AcDbEntity
  8
0
 62
     7
  0
LINE
  5
3AB
100
AcDbEntity
  8
0
 62
     7
100
AcDbLine
 10
-5.98271059
 20
10.17598501
 30
0.0
 11
-6.7048814
 21
10.17598501
 31
0.0
  0
POLYLINE
  5
3AC
100
AcDbEntity
  8
0
 62
     7
100
AcDb2dPolyline
 66
     1
 10
0.0
 20
0.0
 30
0.0
  0
VERTEX
  5
3AD
100
AcDbEntity
  8
0
 62
     7
100
AcDbVertex
100
AcDb2dVertex
 10
-6.7048814
 20
10.17598501
 30
0.0
 42
0.05126659
  0
VERTEX
  5
3AE
100
AcDbEntity
  8
0
 62
     7
100
AcDbVertex
100
AcDb2dVertex
 10
-6.85641538
 20
10.1604068
 30
0.0
 42
0.06511787
  0
VERTEX
  5
3AF
100
AcDbEntity
  8
0
 62
     7
100
AcDbVertex
100
AcDb2dVertex
 10
-6.96986286
 20
10.12092108
 30
0.0
 42
0.10427987
 70
     2
 50
206.64203495
  0
VERTEX
  5
3B0
100
AcDbEntity
  8
0
 62
     7
100
AcDbVertex
100
AcDb2dVertex
 10
-7.05671088
 20
10.0517187
 30
0.0
 42
0.17427997
 50
206.64203495
  0
VERTEX
  5
3B1
100
AcDbEntity
  8
0
 62
     7
100
AcDbVertex
100
AcDb2dVertex
 10
-7.07962178
 20
9.98798501
 30
0.0
 42
0.17427997
  0
VERTEX
  5
3B2
100
AcDbEntity
  8
0
 62
     7
100
AcDbVertex
100
AcDb2dVertex
 10
-7.05671088
 20
9.92425131
 30
0.0
 42
0.10427987
  0
VERTEX
  5
3B3
100
AcDbEntity
  8
0
 62
     7
100
AcDbVertex
100
AcDb2dVertex
 10
-6.96986286
 20
9.85504893
 30
0.0
 42
0.06511787
 70
     2
 50
333.35796505
  0
VERTEX
  5
3B4
100
AcDbEntity
  8
0
 62
     7
100
AcDbVertex
100
AcDb2dVertex
 10
-6.85641538
 20
9.81556321
 30
0.0
 42
0.05126659
 50
333.35796505
  0
VERTEX
  5
3B5
100
AcDbEntity
  8
0
 62
     7
100
AcDbVertex
100
AcDb2dVertex
 10
-6.7048814
 20
9.79998501
 30
0.0
 42
0.05126659
  0
SEQEND
  5
3B6
100
AcDbEntity
  8
0
 62
     7
  0
LINE
  5
3B7
100
AcDbEntity
  8
0
 62
     7
100
AcDbLine
 10
-5.98271059
 20
9.79998501
 30
0.0
 11
-6.7048814
 21
9.79998501
 31
0.0
  0
POLYLINE
  5
3B8
100
AcDbEntity
  8
0
 62
     7
100
AcDb2dPolyline
 66
     1
 10
0.0
 20
0.0
 30
0.0
  0
VERTEX
  5
3B9
100
AcDbEntity
  8
0
 62
     7
100
AcDbVertex
100
AcDb2dVertex
 10
-6.7048814
 20
7.29998501
 30
0.0
 42
-0.05126659
  0
VERTEX
  5
3BA
100
AcDbEntity
  8
0
 62
     7
100
AcDbVertex
100
AcDb2dVertex
 10
-6.85641538
 20
7.31556321
 30
0.0
 42
-0.06511787
  0
VERTEX
  5
3BB
100
AcDbEntity
  8
0
 62
     7
100
AcDbVertex
100
AcDb2dVertex
 10
-6.96986286
 20
7.35504893
 30
0.0
 42
-0.10427987
 70
     2
 50
206.64203495
  0
VERTEX
  5
3BC
100
AcDbEntity
  8
0
 62
     7
100
AcDbVertex
100
AcDb2dVertex
 10
-7.05671088
 20
7.42425131
 30
0.0
 42
-0.17427997
  0
VERTEX
  5
3BD
100
AcDbEntity
  8
0
 62
     7
100
AcDbVertex
100
AcDb2dVertex
 10
-7.07962178
 20
7.48798501
 30
0.0
 42
-0.17427997
  0
VERTEX
  5
3BE
100
AcDbEntity
  8
0
 62
     7
100
AcDbVertex
100
AcDb2dVertex
 10
-7.05671088
 20
7.5517187
 30
0.0
 42
-0.10427987
  0
VERTEX
  5
3BF
100
AcDbEntity
  8
0
 62
     7
100
AcDbVertex
100
AcDb2dVertex
 10
-6.96986286
 20
7.62092108
 30
0.0
 42
-0.06511787
 70
     2
 50
333.35796505
  0
VERTEX
  5
3C0
100
AcDbEntity
  8
0
 62
     7
100
AcDbVertex
100
AcDb2dVertex
 10
-6.85641538
 20
7.6604068
 30
0.0
 42
-0.05126659
  0
VERTEX
  5
3C1
100
AcDbEntity
  8
0
 62
     7
100
AcDbVertex
100
AcDb2dVertex
 10
-6.7048814
 20
7.67598501
 30
0.0
 42
-0.05126659
  0
SEQEND
  5
3C2
100
AcDbEntity
  8
0
 62
     7
  0
LINE
  5
3C3
100
AcDbEntity
  8
0
 62
     7
100
AcDbLine
 10
-5.98271059
 20
7.67598501
 30
0.0
 11
-6.7048814
 21
7.67598501
 31
0.0
  0
LINE
  5
3C4
100
AcDbEntity
  8
0
 62
     7
100
AcDbLine
 10
-5.98271059
 20
7.29998501
 30
0.0
 11
-6.7048814
 21
7.29998501
 31
0.0
  0
LINE
  5
3C5
100
AcDbEntity
  8
0
 62
     7
100
AcDbLine
 10
-5.98271059
 20
5.54998501
 30
0.0
 11
-6.7048814
 21
5.54998501
 31
0.0
  0
LINE
  5
3C6
100
AcDbEntity
  8
0
 62
     7
100
AcDbLine
 10
-5.98271059
 20
5.92598501
 30
0.0
 11
-6.7048814
 21
5.92598501
 31
0.0
  0
POLYLINE
  5
3C7
100
AcDbEntity
  8
0
 62
     7
100
AcDb2dPolyline
 66
     1
 10
0.0
 20
0.0
 30
0.0
  0
VERTEX
  5
3C8
100
AcDbEntity
  8
0
 62
     7
100
AcDbVertex
100
AcDb2dVertex
 10
-6.7048814
 20
5.54998501
 30
0.0
 42
-0.05126659
  0
VERTEX
  5
3C9
100
AcDbEntity
  8
0
 62
     7
100
AcDbVertex
100
AcDb2dVertex
 10
-6.85641538
 20
5.56556321
 30
0.0
 42
-0.06511787
  0
VERTEX
  5
3CA
100
AcDbEntity
  8
0
 62
     7
100
AcDbVertex
100
AcDb2dVertex
 10
-6.96986286
 20
5.60504893
 30
0.0
 42
-0.10427987
 70
     2
 50
206.64203495
  0
VERTEX
  5
3CB
100
AcDbEntity
  8
0
 62
     7
100
AcDbVertex
100
AcDb2dVertex
 10
-7.05671088
 20
5.67425131
 30
0.0
 42
-0.17427997
  0
VERTEX
  5
3CC
100
AcDbEntity
  8
0
 62
     7
100
AcDbVertex
100
AcDb2dVertex
 10
-7.07962178
 20
5.73798501
 30
0.0
 42
-0.17427997
  0
VERTEX
  5
3CD
100
AcDbEntity
  8
0
 62
     7
100
AcDbVertex
100
AcDb2dVertex
 10
-7.05671088
 20
5.8017187
 30
0.0
 42
-0.10427987
  0
VERTEX
  5
3CE
100
AcDbEntity
  8
0
 62
     7
100
AcDbVertex
100
AcDb2dVertex
 10
-6.96986286
 20
5.87092108
 30
0.0
 42
-0.06511787
 70
     2
 50
333.35796505
  0
VERTEX
  5
3CF
100
AcDbEntity
  8
0
 62
     7
100
AcDbVertex
100
AcDb2dVertex
 10
-6.85641538
 20
5.9104068
 30
0.0
 42
-0.05126659
  0
VERTEX
  5
3D0
100
AcDbEntity
  8
0
 62
     7
100
AcDbVertex
100
AcDb2dVertex
 10
-6.7048814
 20
5.92598501
 30
0.0
 42
-0.05126659
  0
SEQEND
  5
3D1
100
AcDbEntity
  8
0
 62
     7
  0
POLYLINE
  5
3D2
100
AcDbEntity
  8
0
 62
     7
100
AcDb2dPolyline
 66
     1
 10
0.0
 20
0.0
 30
0.0
  0
VERTEX
  5
3D3
100
AcDbEntity
  8
0
 62
     7
100
AcDbVertex
100
AcDb2dVertex
 10
-6.7048814
 20
11.92598501
 30
0.0
 42
0.05126659
  0
VERTEX
  5
3D4
100
AcDbEntity
  8
0
 62
     7
100
AcDbVertex
100
AcDb2dVertex
 10
-6.85641538
 20
11.9104068
 30
0.0
 42
0.06511787
  0
VERTEX
  5
3D5
100
AcDbEntity
  8
0
 62
     7
100
AcDbVertex
100
AcDb2dVertex
 10
-6.96986286
 20
11.87092108
 30
0.0
 42
0.10427987
 70
     2
 50
206.64203495
  0
VERTEX
  5
3D6
100
AcDbEntity
  8
0
 62
     7
100
AcDbVertex
100
AcDb2dVertex
 10
-7.05671088
 20
11.8017187
 30
0.0
 42
0.17427997
  0
VERTEX
  5
3D7
100
AcDbEntity
  8
0
 62
     7
100
AcDbVertex
100
AcDb2dVertex
 10
-7.07962178
 20
11.73798501
 30
0.0
 42
0.17427997
  0
VERTEX
  5
3D8
100
AcDbEntity
  8
0
 62
     7
100
AcDbVertex
100
AcDb2dVertex
 10
-7.05671088
 20
11.67425131
 30
0.0
 42
0.10427987
  0
VERTEX
  5
3D9
100
AcDbEntity
  8
0
 62
     7
100
AcDbVertex
100
AcDb2dVertex
 10
-6.96986286
 20
11.60504893
 30
0.0
 42
0.06511787
 70
     2
 50
333.35796505
  0
VERTEX
  5
3DA
100
AcDbEntity
  8
0
 62
     7
100
AcDbVertex
100
AcDb2dVertex
 10
-6.85641538
 20
11.56556321
 30
0.0
 42
0.05126659
  0
VERTEX
  5
3DB
100
AcDbEntity
  8
0
 62
     7
100
AcDbVertex
100
AcDb2dVertex
 10
-6.7048814
 20
11.54998501
 30
0.0
 42
0.05126659
  0
SEQEND
  5
3DC
100
AcDbEntity
  8
0
 62
     7
  0
LINE
  5
3DD
100
AcDbEntity
  8
0
 62
     7
100
AcDbLine
 10
-5.98271059
 20
11.54998501
 30
0.0
 11
-6.7048814
 21
11.54998501
 31
0.0
  0
LINE
  5
3DE
100
AcDbEntity
  8
0
 62
     7
100
AcDbLine
 10
-5.98271059
 20
11.92598501
 30
0.0
 11
-6.7048814
 21
11.92598501
 31
0.0
  0
LINE
  5
3DF
100
AcDbEntity
  8
0
 62
     7
100
AcDbLine
 10
-10.51653297
 20
11.54998501
 30
0.0
 11
-9.79436216
 21
11.54998501
 31
0.0
  0
POLYLINE
  5
3E0
100
AcDbEntity
  8
0
 62
     7
100
AcDb2dPolyline
 66
     1
 10
0.0
 20
0.0
 30
0.0
  0
VERTEX
  5
3E1
100
AcDbEntity
  8
0
 62
     7
100
AcDbVertex
100
AcDb2dVertex
 10
-9.79436216
 20
11.92598501
 30
0.0
 42
-0.05126659
  0
VERTEX
  5
3E2
100
AcDbEntity
  8
0
 62
     7
100
AcDbVertex
100
AcDb2dVertex
 10
-9.64282818
 20
11.9104068
 30
0.0
 42
-0.06511787
  0
VERTEX
  5
3E3
100
AcDbEntity
  8
0
 62
     7
100
AcDbVertex
100
AcDb2dVertex
 10
-9.52938069
 20
11.87092108
 30
0.0
 42
-0.10427987
 70
     2
 50
206.64203495
  0
VERTEX
  5
3E4
100
AcDbEntity
  8
0
 62
     7
100
AcDbVertex
100
AcDb2dVertex
 10
-9.44253268
 20
11.8017187
 30
0.0
 42
-0.17427997
  0
VERTEX
  5
3E5
100
AcDbEntity
  8
0
 62
     7
100
AcDbVertex
100
AcDb2dVertex
 10
-9.41962178
 20
11.73798501
 30
0.0
 42
-0.17427997
  0
VERTEX
  5
3E6
100
AcDbEntity
  8
0
 62
     7
100
AcDbVertex
100
AcDb2dVertex
 10
-9.44253268
 20
11.67425131
 30
0.0
 42
-0.10427987
  0
VERTEX
  5
3E7
100
AcDbEntity
  8
0
 62
     7
100
AcDbVertex
100
AcDb2dVertex
 10
-9.52938069
 20
11.60504893
 30
0.0
 42
-0.06511787
 70
     2
 50
333.35796505
  0
VERTEX
  5
3E8
100
AcDbEntity
  8
0
 62
     7
100
AcDbVertex
100
AcDb2dVertex
 10
-9.64282818
 20
11.56556321
 30
0.0
 42
-0.05126659
  0
VERTEX
  5
3E9
100
AcDbEntity
  8
0
 62
     7
100
AcDbVertex
100
AcDb2dVertex
 10
-9.79436216
 20
11.54998501
 30
0.0
 42
-0.05126659
  0
SEQEND
  5
3EA
100
AcDbEntity
  8
0
 62
     7
  0
POLYLINE
  5
3EB
100
AcDbEntity
  8
0
 62
     7
100
AcDb2dPolyline
 66
     1
 10
0.0
 20
0.0
 30
0.0
  0
VERTEX
  5
3EC
100
AcDbEntity
  8
0
 62
     7
100
AcDbVertex
100
AcDb2dVertex
 10
-9.79436216
 20
5.54998501
 30
0.0
 42
0.05126659
  0
VERTEX
  5
3ED
100
AcDbEntity
  8
0
 62
     7
100
AcDbVertex
100
AcDb2dVertex
 10
-9.64282818
 20
5.56556321
 30
0.0
 42
0.06511787
  0
VERTEX
  5
3EE
100
AcDbEntity
  8
0
 62
     7
100
AcDbVertex
100
AcDb2dVertex
 10
-9.52938069
 20
5.60504893
 30
0.0
 42
0.10427987
 70
     2
 50
206.64203495
  0
VERTEX
  5
3EF
100
AcDbEntity
  8
0
 62
     7
100
AcDbVertex
100
AcDb2dVertex
 10
-9.44253268
 20
5.67425131
 30
0.0
 42
0.17427997
  0
VERTEX
  5
3F0
100
AcDbEntity
  8
0
 62
     7
100
AcDbVertex
100
AcDb2dVertex
 10
-9.41962178
 20
5.73798501
 30
0.0
 42
0.17427997
  0
VERTEX
  5
3F1
100
AcDbEntity
  8
0
 62
     7
100
AcDbVertex
100
AcDb2dVertex
 10
-9.44253268
 20
5.8017187
 30
0.0
 42
0.10427987
  0
VERTEX
  5
3F2
100
AcDbEntity
  8
0
 62
     7
100
AcDbVertex
100
AcDb2dVertex
 10
-9.52938069
 20
5.87092108
 30
0.0
 42
0.06511787
 70
     2
 50
333.35796505
  0
VERTEX
  5
3F3
100
AcDbEntity
  8
0
 62
     7
100
AcDbVertex
100
AcDb2dVertex
 10
-9.64282818
 20
5.9104068
 30
0.0
 42
0.05126659
  0
VERTEX
  5
3F4
100
AcDbEntity
  8
0
 62
     7
100
AcDbVertex
100
AcDb2dVertex
 10
-9.79436216
 20
5.92598501
 30
0.0
 42
0.05126659
  0
SEQEND
  5
3F5
100
AcDbEntity
  8
0
 62
     7
  0
LINE
  5
3F6
100
AcDbEntity
  8
0
 62
     7
100
AcDbLine
 10
-10.51653297
 20
5.92598501
 30
0.0
 11
-9.79436216
 21
5.92598501
 31
0.0
  0
LINE
  5
3F7
100
AcDbEntity
  8
0
 62
     7
100
AcDbLine
 10
-10.51653297
 20
7.29998501
 30
0.0
 11
-9.79436216
 21
7.29998501
 31
0.0
  0
LINE
  5
3F8
100
AcDbEntity
  8
0
 62
     7
100
AcDbLine
 10
-10.51653297
 20
7.67598501
 30
0.0
 11
-9.79436216
 21
7.67598501
 31
0.0
  0
POLYLINE
  5
3F9
100
AcDbEntity
  8
0
 62
     7
100
AcDb2dPolyline
 66
     1
 10
0.0
 20
0.0
 30
0.0
  0
VERTEX
  5
3FA
100
AcDbEntity
  8
0
 62
     7
100
AcDbVertex
100
AcDb2dVertex
 10
-9.79436216
 20
7.29998501
 30
0.0
 42
0.05126659
  0
VERTEX
  5
3FB
100
AcDbEntity
  8
0
 62
     7
100
AcDbVertex
100
AcDb2dVertex
 10
-9.64282818
 20
7.31556321
 30
0.0
 42
0.06511787
  0
VERTEX
  5
3FC
100
AcDbEntity
  8
0
 62
     7
100
AcDbVertex
100
AcDb2dVertex
 10
-9.52938069
 20
7.35504893
 30
0.0
 42
0.10427987
 70
     2
 50
206.64203495
  0
VERTEX
  5
3FD
100
AcDbEntity
  8
0
 62
     7
100
AcDbVertex
100
AcDb2dVertex
 10
-9.44253268
 20
7.42425131
 30
0.0
 42
0.17427997
  0
VERTEX
  5
3FE
100
AcDbEntity
  8
0
 62
     7
100
AcDbVertex
100
AcDb2dVertex
 10
-9.41962178
 20
7.48798501
 30
0.0
 42
0.17427997
  0
VERTEX
  5
3FF
100
AcDbEntity
  8
0
 62
     7
100
AcDbVertex
100
AcDb2dVertex
 10
-9.44253268
 20
7.5517187
 30
0.0
 42
0.10427987
  0
VERTEX
  5
400
100
AcDbEntity
  8
0
 62
     7
100
AcDbVertex
100
AcDb2dVertex
 10
-9.52938069
 20
7.62092108
 30
0.0
 42
0.06511787
 70
     2
 50
333.35796505
  0
VERTEX
  5
401
100
AcDbEntity
  8
0
 62
     7
100
AcDbVertex
100
AcDb2dVertex
 10
-9.64282818
 20
7.6604068
 30
0.0
 42
0.05126659
  0
VERTEX
  5
402
100
AcDbEntity
  8
0
 62
     7
100
AcDbVertex
100
AcDb2dVertex
 10
-9.79436216
 20
7.67598501
 30
0.0
 42
0.05126659
  0
SEQEND
  5
403
100
AcDbEntity
  8
0
 62
     7
  0
LINE
  5
404
100
AcDbEntity
  8
0
 62
     7
100
AcDbLine
 10
-10.51653297
 20
9.79998501
 30
0.0
 11
-9.79436216
 21
9.79998501
 31
0.0
  0
POLYLINE
  5
405
100
AcDbEntity
  8
0
 62
     7
100
AcDb2dPolyline
 66
     1
 10
0.0
 20
0.0
 30
0.0
  0
VERTEX
  5
406
100
AcDbEntity
  8
0
 62
     7
100
AcDbVertex
100
AcDb2dVertex
 10
-9.79436216
 20
10.17598501
 30
0.0
 42
-0.05126659
  0
VERTEX
  5
407
100
AcDbEntity
  8
0
 62
     7
100
AcDbVertex
100
AcDb2dVertex
 10
-9.64282818
 20
10.1604068
 30
0.0
 42
-0.06511787
  0
VERTEX
  5
408
100
AcDbEntity
  8
0
 62
     7
100
AcDbVertex
100
AcDb2dVertex
 10
-9.52938069
 20
10.12092108
 30
0.0
 42
-0.10427987
 70
     2
 50
206.64203495
  0
VERTEX
  5
409
100
AcDbEntity
  8
0
 62
     7
100
AcDbVertex
100
AcDb2dVertex
 10
-9.44253268
 20
10.0517187
 30
0.0
 42
-0.17427997
  0
VERTEX
  5
40A
100
AcDbEntity
  8
0
 62
     7
100
AcDbVertex
100
AcDb2dVertex
 10
-9.41962178
 20
9.98798501
 30
0.0
 42
-0.17427997
  0
VERTEX
  5
40B
100
AcDbEntity
  8
0
 62
     7
100
AcDbVertex
100
AcDb2dVertex
 10
-9.44253268
 20
9.92425131
 30
0.0
 42
-0.10427987
  0
VERTEX
  5
40C
100
AcDbEntity
  8
0
 62
     7
100
AcDbVertex
100
AcDb2dVertex
 10
-9.52938069
 20
9.85504893
 30
0.0
 42
-0.06511787
 70
     2
 50
333.35796505
  0
VERTEX
  5
40D
100
AcDbEntity
  8
0
 62
     7
100
AcDbVertex
100
AcDb2dVertex
 10
-9.64282818
 20
9.81556321
 30
0.0
 42
-0.05126659
  0
VERTEX
  5
40E
100
AcDbEntity
  8
0
 62
     7
100
AcDbVertex
100
AcDb2dVertex
 10
-9.79436216
 20
9.79998501
 30
0.0
 42
-0.05126659
  0
SEQEND
  5
40F
100
AcDbEntity
  8
0
 62
     7
  0
LINE
  5
410
100
AcDbEntity
  8
0
 62
     7
100
AcDbLine
 10
-10.51653297
 20
10.17598501
 30
0.0
 11
-9.79436216
 21
10.17598501
 31
0.0
  0
POLYLINE
  5
411
100
AcDbEntity
  8
0
 62
     7
100
AcDb2dPolyline
 66
     1
 10
0.0
 20
0.0
 30
0.0
  0
VERTEX
  5
412
100
AcDbEntity
  8
0
 62
     7
100
AcDbVertex
100
AcDb2dVertex
 10
-9.79436216
 20
8.92598501
 30
0.0
 42
-0.05126659
  0
VERTEX
  5
413
100
AcDbEntity
  8
0
 62
     7
100
AcDbVertex
100
AcDb2dVertex
 10
-9.64282818
 20
8.9104068
 30
0.0
 42
-0.06511787
  0
VERTEX
  5
414
100
AcDbEntity
  8
0
 62
     7
100
AcDbVertex
100
AcDb2dVertex
 10
-9.52938069
 20
8.87092108
 30
0.0
 42
-0.10427987
 70
     2
 50
206.64203495
  0
VERTEX
  5
415
100
AcDbEntity
  8
0
 62
     7
100
AcDbVertex
100
AcDb2dVertex
 10
-9.44253268
 20
8.8017187
 30
0.0
 42
-0.17427997
  0
VERTEX
  5
416
100
AcDbEntity
  8
0
 62
     7
100
AcDbVertex
100
AcDb2dVertex
 10
-9.41962178
 20
8.73798501
 30
0.0
 42
-0.17427997
  0
VERTEX
  5
417
100
AcDbEntity
  8
0
 62
     7
100
AcDbVertex
100
AcDb2dVertex
 10
-9.44253268
 20
8.67425131
 30
0.0
 42
-0.10427987
  0
VERTEX
  5
418
100
AcDbEntity
  8
0
 62
     7
100
AcDbVertex
100
AcDb2dVertex
 10
-9.52938069
 20
8.60504893
 30
0.0
 42
-0.06511787
 70
     2
 50
333.35796505
  0
VERTEX
  5
419
100
AcDbEntity
  8
0
 62
     7
100
AcDbVertex
100
AcDb2dVertex
 10
-9.64282818
 20
8.56556321
 30
0.0
 42
-0.05126659
  0
VERTEX
  5
41A
100
AcDbEntity
  8
0
 62
     7
100
AcDbVertex
100
AcDb2dVertex
 10
-9.79436216
 20
8.54998501
 30
0.0
 42
-0.05126659
  0
SEQEND
  5
41B
100
AcDbEntity
  8
0
 62
     7
  0
LINE
  5
41C
100
AcDbEntity
  8
0
 62
     7
100
AcDbLine
 10
-10.51653297
 20
8.54998501
 30
0.0
 11
-9.79436216
 21
8.54998501
 31
0.0
  0
LINE
  5
41D
100
AcDbEntity
  8
0
 62
     7
100
AcDbLine
 10
-10.51653297
 20
8.92598501
 30
0.0
 11
-9.79436216
 21
8.92598501
 31
0.0
  0
LINE
  5
41E
100
AcDbEntity
  8
0
 62
     7
100
AcDbLine
 10
-10.51653297
 20
11.92598501
 30
0.0
 11
-9.79436216
 21
11.92598501
 31
0.0
  0
LINE
  5
41F
100
AcDbEntity
  8
0
 62
     7
100
AcDbLine
 10
-10.51653297
 20
5.54998501
 30
0.0
 11
-9.79436216
 21
5.54998501
 31
0.0
  0
ARC
  5
423
100
AcDbEntity
  8
0
 62
     7
100
AcDbCircle
 10
11.99745026
 20
-11.91700094
 30
0.0
 40
6.0
100
AcDbArc
 50
140.54910529
 51
219.45089471
  0
ARC
  5
424
100
AcDbEntity
  8
0
 62
     7
100
AcDbCircle
 10
13.24745026
 20
-11.91700094
 30
0.0
 40
6.0
100
AcDbArc
 50
320.54910529
 51
39.45089471
  0
LINE
  5
425
100
AcDbEntity
  8
0
 62
     7
100
AcDbLine
 10
7.36443356
 20
-8.10450094
 30
0.0
 11
7.99745026
 21
-8.10450094
 31
0.0
  0
LINE
  5
426
100
AcDbEntity
  8
0
 62
     7
100
AcDbLine
 10
7.36443356
 20
-15.72950094
 30
0.0
 11
7.99745026
 21
-15.72950094
 31
0.0
  0
LINE
  5
427
100
AcDbEntity
  8
0
 62
     7
100
AcDbLine
 10
7.99745026
 20
-14.91700094
 30
0.0
 11
7.99745026
 21
-15.72950094
 31
0.0
  0
LINE
  5
428
100
AcDbEntity
  8
0
 62
     7
100
AcDbLine
 10
8.49745026
 20
-14.91700094
 30
0.0
 11
8.49745026
 21
-15.72950094
 31
0.0
  0
ARC
  5
429
100
AcDbEntity
  8
0
 62
     7
100
AcDbCircle
 10
8.24745026
 20
-14.91700094
 30
0.0
 40
0.25
100
AcDbArc
 50
0.0
 51
180.0
  0
ARC
  5
42A
100
AcDbEntity
  8
0
 62
     7
100
AcDbCircle
 10
8.24745026
 20
-8.91700094
 30
0.0
 40
0.25
100
AcDbArc
 50
180.0
 51
0.0
  0
LINE
  5
42B
100
AcDbEntity
  8
0
 62
     7
100
AcDbLine
 10
8.49745026
 20
-8.91700094
 30
0.0
 11
8.49745026
 21
-8.10450094
 31
0.0
  0
LINE
  5
42C
100
AcDbEntity
  8
0
 62
     7
100
AcDbLine
 10
7.99745026
 20
-8.91700094
 30
0.0
 11
7.99745026
 21
-8.10450094
 31
0.0
  0
LINE
  5
42D
100
AcDbEntity
  8
0
 62
     7
100
AcDbLine
 10
17.24745026
 20
-8.91700094
 30
0.0
 11
17.24745026
 21
-8.10450094
 31
0.0
  0
LINE
  5
42E
100
AcDbEntity
  8
0
 62
     7
100
AcDbLine
 10
16.74745026
 20
-8.91700094
 30
0.0
 11
16.74745026
 21
-8.10450094
 31
0.0
  0
ARC
  5
42F
100
AcDbEntity
  8
0
 62
     7
100
AcDbCircle
 10
16.99745026
 20
-8.91700094
 30
0.0
 40
0.25
100
AcDbArc
 50
180.0
 51
0.0
  0
ARC
  5
430
100
AcDbEntity
  8
0
 62
     7
100
AcDbCircle
 10
16.99745026
 20
-14.91700094
 30
0.0
 40
0.25
100
AcDbArc
 50
0.0
 51
180.0
  0
LINE
  5
431
100
AcDbEntity
  8
0
 62
     7
100
AcDbLine
 10
16.74745026
 20
-14.91700094
 30
0.0
 11
16.74745026
 21
-15.72950094
 31
0.0
  0
LINE
  5
432
100
AcDbEntity
  8
0
 62
     7
100
AcDbLine
 10
17.24745026
 20
-14.91700094
 30
0.0
 11
17.24745026
 21
-15.72950094
 31
0.0
  0
LINE
  5
433
100
AcDbEntity
  8
0
 62
     7
100
AcDbLine
 10
17.24745026
 20
-8.10450094
 30
0.0
 11
17.88046696
 21
-8.10450094
 31
0.0
  0
LINE
  5
434
100
AcDbEntity
  8
0
 62
     7
100
AcDbLine
 10
8.49745026
 20
-8.10450094
 30
0.0
 11
16.74745026
 21
-8.10450094
 31
0.0
  0
LINE
  5
435
100
AcDbEntity
  8
0
 62
     7
100
AcDbLine
 10
8.49745026
 20
-15.72950094
 30
0.0
 11
16.74745026
 21
-15.72950094
 31
0.0
  0
LINE
  5
436
100
AcDbEntity
  8
0
 62
     7
100
AcDbLine
 10
17.24745026
 20
-15.72950094
 30
0.0
 11
17.88046696
 21
-15.72950094
 31
0.0
  0
ARC
  5
437
100
AcDbEntity
  8
0
 62
     7
100
AcDbCircle
 10
-10.27493363
 20
-10.94348209
 30
0.0
 40
1.5325643
100
AcDbArc
 50
297.25565466
 51
343.512404
  0
ARC
  5
438
100
AcDbEntity
  8
0
 62
     7
100
AcDbCircle
 10
-6.22430993
 20
-10.94348209
 30
0.0
 40
1.5325643
100
AcDbArc
 50
196.487596
 51
242.74434534
  0
LINE
  5
439
100
AcDbEntity
  8
0
 62
     7
100
AcDbLine
 10
-7.71645358
 20
-11.29314001
 30
0.0
 11
-8.24962178
 21
-10.98531521
 31
0.0
  0
LINE
  5
43A
100
AcDbEntity
  8
0
 62
     7
100
AcDbLine
 10
-8.78278997
 20
-11.29314001
 30
0.0
 11
-8.24962178
 21
-10.98531521
 31
0.0
  0
LINE
  5
43B
100
AcDbEntity
  8
0
 62
     7
100
AcDbLine
 10
-7.71645358
 20
-11.29314001
 30
0.0
 11
-8.78278997
 21
-11.29314001
 31
0.0
  0
ARC
  5
43C
100
AcDbEntity
  8
0
 62
     7
100
AcDbCircle
 10
-3.07762178
 20
-11.29314001
 30
0.0
 40
0.8755
100
AcDbArc
 50
266.92267644
 51
93.07732356
  0
LINE
  5
43D
100
AcDbEntity
  8
0
 62
     7
100
AcDbLine
 10
-3.12462178
 20
-7.88714001
 30
0.0
 11
-3.12462178
 21
-14.69914001
 31
0.0
  0
LINE
  5
43E
100
AcDbEntity
  8
0
 62
     7
100
AcDbLine
 10
-4.62462178
 20
-7.88714001
 30
0.0
 11
-4.62462178
 21
-14.69914001
 31
0.0
  0
LINE
  5
43F
100
AcDbEntity
  8
0
 62
     7
100
AcDbLine
 10
-11.87462178
 20
-7.88714001
 30
0.0
 11
-11.87462178
 21
-14.69914001
 31
0.0
  0
LINE
  5
440
100
AcDbEntity
  8
0
 62
     7
100
AcDbLine
 10
-13.37462178
 20
-7.88714001
 30
0.0
 11
-13.37462178
 21
-14.69914001
 31
0.0
  0
ARC
  5
441
100
AcDbEntity
  8
0
 62
     7
100
AcDbCircle
 10
-13.42162178
 20
-11.29314001
 30
0.0
 40
0.8755
100
AcDbArc
 50
86.92267644
 51
273.07732356
  0
ARC
  5
442
100
AcDbEntity
  8
0
 62
     7
100
AcDbCircle
 10
-9.53062178
 20
-13.19914001
 30
0.0
 40
0.094
100
AcDbArc
 50
180.0
 51
270.0
  0
ARC
  5
443
100
AcDbEntity
  8
0
 62
     7
100
AcDbCircle
 10
-6.96862178
 20
-13.19914001
 30
0.0
 40
0.094
100
AcDbArc
 50
270.0
 51
0.0
  0
ARC
  5
444
100
AcDbEntity
  8
0
 62
     7
100
AcDbCircle
 10
-6.74962178
 20
-12.41303157
 30
0.0
 40
0.125
100
AcDbArc
 50
92.56642957
 51
180.0
  0
ARC
  5
445
100
AcDbEntity
  8
0
 62
     7
100
AcDbCircle
 10
-9.74962178
 20
-12.41303157
 30
0.0
 40
0.125
100
AcDbArc
 50
0.0
 51
87.43357043
  0
LINE
  5
446
100
AcDbEntity
  8
0
 62
     7
100
AcDbLine
 10
-11.87462178
 20
-12.19265798
 30
0.0
 11
-9.74402457
 21
-12.28815695
 31
0.0
  0
LINE
  5
447
100
AcDbEntity
  8
0
 62
     7
100
AcDbLine
 10
-4.62462178
 20
-12.19265798
 30
0.0
 11
-6.75521899
 21
-12.28815695
 31
0.0
  0
LINE
  5
448
100
AcDbEntity
  8
0
 62
     7
100
AcDbLine
 10
-9.62462178
 20
-13.19914001
 30
0.0
 11
-9.62462178
 21
-12.41303157
 31
0.0
  0
LINE
  5
449
100
AcDbEntity
  8
0
 62
     7
100
AcDbLine
 10
-6.87462178
 20
-13.19914001
 30
0.0
 11
-6.87462178
 21
-12.41303157
 31
0.0
  0
ARC
  5
44A
100
AcDbEntity
  8
0
 62
     7
100
AcDbCircle
 10
-11.96862178
 20
-7.88714001
 30
0.0
 40
0.094
100
AcDbArc
 50
0.0
 51
90.0
  0
ARC
  5
44B
100
AcDbEntity
  8
0
 62
     7
100
AcDbCircle
 10
-12.31162178
 20
-7.88714001
 30
0.0
 40
0.094
100
AcDbArc
 50
90.0
 51
180.0
  0
ARC
  5
44C
100
AcDbEntity
  8
0
 62
     7
100
AcDbCircle
 10
-12.93762178
 20
-7.88714001
 30
0.0
 40
0.094
100
AcDbArc
 50
0.0
 51
90.0
  0
ARC
  5
44D
100
AcDbEntity
  8
0
 62
     7
100
AcDbCircle
 10
-13.28062178
 20
-7.88714001
 30
0.0
 40
0.094
100
AcDbArc
 50
90.0
 51
180.0
  0
ARC
  5
44E
100
AcDbEntity
  8
0
 62
     7
100
AcDbCircle
 10
-13.28062178
 20
-14.69914001
 30
0.0
 40
0.094
100
AcDbArc
 50
180.0
 51
270.0
  0
ARC
  5
44F
100
AcDbEntity
  8
0
 62
     7
100
AcDbCircle
 10
-12.93762178
 20
-14.69914001
 30
0.0
 40
0.094
100
AcDbArc
 50
270.0
 51
0.0
  0
ARC
  5
450
100
AcDbEntity
  8
0
 62
     7
100
AcDbCircle
 10
-12.31162178
 20
-14.69914001
 30
0.0
 40
0.094
100
AcDbArc
 50
180.0
 51
270.0
  0
ARC
  5
451
100
AcDbEntity
  8
0
 62
     7
100
AcDbCircle
 10
-11.96862178
 20
-14.69914001
 30
0.0
 40
0.094
100
AcDbArc
 50
270.0
 51
0.0
  0
ARC
  5
452
100
AcDbEntity
  8
0
 62
     7
100
AcDbCircle
 10
-4.53062178
 20
-7.88714001
 30
0.0
 40
0.094
100
AcDbArc
 50
90.0
 51
180.0
  0
ARC
  5
453
100
AcDbEntity
  8
0
 62
     7
100
AcDbCircle
 10
-4.18762178
 20
-7.88714001
 30
0.0
 40
0.094
100
AcDbArc
 50
0.0
 51
90.0
  0
ARC
  5
454
100
AcDbEntity
  8
0
 62
     7
100
AcDbCircle
 10
-3.56162178
 20
-7.88714001
 30
0.0
 40
0.094
100
AcDbArc
 50
90.0
 51
180.0
  0
ARC
  5
455
100
AcDbEntity
  8
0
 62
     7
100
AcDbCircle
 10
-3.21862178
 20
-7.88714001
 30
0.0
 40
0.094
100
AcDbArc
 50
0.0
 51
90.0
  0
ARC
  5
456
100
AcDbEntity
  8
0
 62
     7
100
AcDbCircle
 10
-4.53062178
 20
-14.69914001
 30
0.0
 40
0.094
100
AcDbArc
 50
180.0
 51
270.0
  0
ARC
  5
457
100
AcDbEntity
  8
0
 62
     7
100
AcDbCircle
 10
-4.18762178
 20
-14.69914001
 30
0.0
 40
0.094
100
AcDbArc
 50
270.0
 51
0.0
  0
ARC
  5
458
100
AcDbEntity
  8
0
 62
     7
100
AcDbCircle
 10
-3.56162178
 20
-14.69914001
 30
0.0
 40
0.094
100
AcDbArc
 50
180.0
 51
270.0
  0
ARC
  5
459
100
AcDbEntity
  8
0
 62
     7
100
AcDbCircle
 10
-3.21862178
 20
-14.69914001
 30
0.0
 40
0.094
100
AcDbArc
 50
270.0
 51
0.0
  0
LINE
  5
45A
100
AcDbEntity
  8
0
 62
     7
100
AcDbLine
 10
-11.87462178
 20
-10.39362203
 30
0.0
 11
-8.24962178
 21
-10.23114001
 31
0.0
  0
LINE
  5
45B
100
AcDbEntity
  8
0
 62
     7
100
AcDbLine
 10
-4.62462178
 20
-10.39362203
 30
0.0
 11
-8.24962178
 21
-10.23114001
 31
0.0
  0
LINE
  5
45C
100
AcDbEntity
  8
0
 62
     7
100
AcDbLine
 10
-8.24962178
 20
-10.98531521
 30
0.0
 11
-8.24962178
 21
-10.23114001
 31
0.0
  0
LINE
  5
45D
100
AcDbEntity
  8
0
 62
     7
100
AcDbLine
 10
-13.28062178
 20
-7.79314001
 30
0.0
 11
-12.93762178
 21
-7.79314001
 31
0.0
  0
LINE
  5
45E
100
AcDbEntity
  8
0
 62
     7
100
AcDbLine
 10
-13.28062178
 20
-14.79314001
 30
0.0
 11
-12.93762178
 21
-14.79314001
 31
0.0
  0
ARC
  5
45F
100
AcDbEntity
  8
0
 62
     7
100
AcDbCircle
 10
-12.62462178
 20
-14.26214001
 30
0.0
 40
0.219
100
AcDbArc
 50
0.0
 51
180.0
  0
ARC
  5
460
100
AcDbEntity
  8
0
 62
     7
100
AcDbCircle
 10
-12.62462178
 20
-8.32414001
 30
0.0
 40
0.219
100
AcDbArc
 50
180.0
 51
0.0
  0
LINE
  5
461
100
AcDbEntity
  8
0
 62
     7
100
AcDbLine
 10
-12.40562178
 20
-14.26214001
 30
0.0
 11
-12.40562178
 21
-14.69914001
 31
0.0
  0
LINE
  5
462
100
AcDbEntity
  8
0
 62
     7
100
AcDbLine
 10
-12.84362178
 20
-14.26214001
 30
0.0
 11
-12.84362178
 21
-14.69914001
 31
0.0
  0
LINE
  5
463
100
AcDbEntity
  8
0
 62
     7
100
AcDbLine
 10
-12.84362178
 20
-8.32414001
 30
0.0
 11
-12.84362178
 21
-7.88714001
 31
0.0
  0
LINE
  5
464
100
AcDbEntity
  8
0
 62
     7
100
AcDbLine
 10
-12.40562178
 20
-8.32414001
 30
0.0
 11
-12.40562178
 21
-7.88714001
 31
0.0
  0
LINE
  5
465
100
AcDbEntity
  8
0
 62
     7
100
AcDbLine
 10
-12.31162178
 20
-14.79314001
 30
0.0
 11
-11.96862178
 21
-14.79314001
 31
0.0
  0
LINE
  5
466
100
AcDbEntity
  8
0
 62
     7
100
AcDbLine
 10
-12.31162178
 20
-7.79314001
 30
0.0
 11
-11.96862178
 21
-7.79314001
 31
0.0
  0
LINE
  5
467
100
AcDbEntity
  8
0
 62
     7
100
AcDbLine
 10
-4.18762178
 20
-7.79314001
 30
0.0
 11
-4.53062178
 21
-7.79314001
 31
0.0
  0
LINE
  5
468
100
AcDbEntity
  8
0
 62
     7
100
AcDbLine
 10
-4.18762178
 20
-14.79314001
 30
0.0
 11
-4.53062178
 21
-14.79314001
 31
0.0
  0
LINE
  5
469
100
AcDbEntity
  8
0
 62
     7
100
AcDbLine
 10
-4.09362178
 20
-8.32414001
 30
0.0
 11
-4.09362178
 21
-7.88714001
 31
0.0
  0
LINE
  5
46A
100
AcDbEntity
  8
0
 62
     7
100
AcDbLine
 10
-3.65562178
 20
-8.32414001
 30
0.0
 11
-3.65562178
 21
-7.88714001
 31
0.0
  0
LINE
  5
46B
100
AcDbEntity
  8
0
 62
     7
100
AcDbLine
 10
-3.65562178
 20
-14.26214001
 30
0.0
 11
-3.65562178
 21
-14.69914001
 31
0.0
  0
LINE
  5
46C
100
AcDbEntity
  8
0
 62
     7
100
AcDbLine
 10
-4.09362178
 20
-14.26214001
 30
0.0
 11
-4.09362178
 21
-14.69914001
 31
0.0
  0
ARC
  5
46D
100
AcDbEntity
  8
0
 62
     7
100
AcDbCircle
 10
-3.87462178
 20
-8.32414001
 30
0.0
 40
0.219
100
AcDbArc
 50
180.0
 51
0.0
  0
ARC
  5
46E
100
AcDbEntity
  8
0
 62
     7
100
AcDbCircle
 10
-3.87462178
 20
-14.26214001
 30
0.0
 40
0.219
100
AcDbArc
 50
0.0
 51
180.0
  0
LINE
  5
46F
100
AcDbEntity
  8
0
 62
     7
100
AcDbLine
 10
-3.21862178
 20
-14.79314001
 30
0.0
 11
-3.56162178
 21
-14.79314001
 31
0.0
  0
LINE
  5
470
100
AcDbEntity
  8
0
 62
     7
100
AcDbLine
 10
-3.21862178
 20
-7.79314001
 30
0.0
 11
-3.56162178
 21
-7.79314001
 31
0.0
  0
LINE
  5
471
100
AcDbEntity
  8
0
 62
     7
100
AcDbLine
 10
-9.53062178
 20
-13.29314001
 30
0.0
 11
-6.96862178
 21
-13.29314001
 31
0.0
  0
LINE
  5
472
100
AcDbEntity
  8
0
 62
     7
100
AcDbLine
 10
-8.36212178
 20
3.55048501
 30
0.0
 11
-8.13712178
 21
3.55048501
 31
0.0
  0
LINE
  5
473
100
AcDbEntity
  8
0
 62
     7
100
AcDbLine
 10
-8.24962178
 20
3.43798501
 30
0.0
 11
-8.24962178
 21
3.66298501
 31
0.0
  0
ARC
  5
474
100
AcDbEntity
  8
0
  6
HIDDEN2
 62
     7
100
AcDbCircle
 10
10.05248886
 20
7.83098501
 30
0.0
 40
0.062
100
AcDbArc
 50
270.0
 51
345.61141015
  0
ARC
  5
475
100
AcDbEntity
  8
0
  6
HIDDEN2
 62
     7
100
AcDbCircle
 10
10.29416271
 20
7.76898501
 30
0.0
 40
0.1875
100
AcDbArc
 50
0.0
 51
165.61141015
  0
LINE
  5
476
100
AcDbEntity
  8
0
  6
HIDDEN2
 62
     7
100
AcDbLine
 10
10.48166271
 20
7.76898501
 30
0.0
 11
10.48166271
 21
6.79998501
 31
0.0
  0
LINE
  5
477
100
AcDbEntity
  8
0
  6
HIDDEN2
 62
     7
100
AcDbLine
 10
12.23166271
 20
6.73798501
 30
0.0
 11
10.54366271
 21
6.73798501
 31
0.0
  0
LINE
  5
478
100
AcDbEntity
  8
0
  6
HIDDEN2
 62
     7
100
AcDbLine
 10
10.54366271
 20
10.73798501
 30
0.0
 11
12.23166271
 21
10.73798501
 31
0.0
  0
LINE
  5
479
100
AcDbEntity
  8
0
  6
HIDDEN2
 62
     7
100
AcDbLine
 10
10.04466271
 20
9.70698501
 30
0.0
 11
8.91866271
 21
9.70698501
 31
0.0
  0
LINE
  5
47A
100
AcDbEntity
  8
0
  6
HIDDEN2
 62
     7
100
AcDbLine
 10
8.85666271
 20
7.83098501
 30
0.0
 11
8.85666271
 21
9.64498501
 31
0.0
  0
LINE
  5
47B
100
AcDbEntity
  8
0
  6
HIDDEN2
 62
     7
100
AcDbLine
 10
10.10666271
 20
9.23748501
 30
0.0
 11
10.10666271
 21
9.64498501
 31
0.0
  0
LINE
  5
47C
100
AcDbEntity
  8
0
  6
HIDDEN2
 62
     7
100
AcDbLine
 10
8.91866271
 20
7.76898501
 30
0.0
 11
10.05248886
 21
7.76898501
 31
0.0
  0
ARC
  5
47D
100
AcDbEntity
  8
0
  6
HIDDEN2
 62
     7
100
AcDbCircle
 10
8.91866271
 20
9.64498501
 30
0.0
 40
0.062
100
AcDbArc
 50
90.0
 51
180.0
  0
ARC
  5
47E
100
AcDbEntity
  8
0
  6
HIDDEN2
 62
     7
100
AcDbCircle
 10
8.91866271
 20
7.83098501
 30
0.0
 40
0.062
100
AcDbArc
 50
180.0
 51
270.0
  0
ARC
  5
47F
100
AcDbEntity
  8
0
  6
HIDDEN2
 62
     7
100
AcDbCircle
 10
10.04466271
 20
9.64498501
 30
0.0
 40
0.062
100
AcDbArc
 50
0.0
 51
90.0
  0
ARC
  5
480
100
AcDbEntity
  8
0
  6
HIDDEN2
 62
     7
100
AcDbCircle
 10
10.29416271
 20
9.23748501
 30
0.0
 40
0.1875
100
AcDbArc
 50
180.0
 51
0.0
  0
LINE
  5
481
100
AcDbEntity
  8
0
  6
HIDDEN2
 62
     7
100
AcDbLine
 10
10.48166271
 20
9.23748501
 30
0.0
 11
10.48166271
 21
10.67598501
 31
0.0
  0
ARC
  5
482
100
AcDbEntity
  8
0
  6
HIDDEN2
 62
     7
100
AcDbCircle
 10
10.54366271
 20
6.79998501
 30
0.0
 40
0.062
100
AcDbArc
 50
180.0
 51
270.0
  0
ARC
  5
483
100
AcDbEntity
  8
0
  6
HIDDEN2
 62
     7
100
AcDbCircle
 10
10.54366271
 20
10.67598501
 30
0.0
 40
0.062
100
AcDbArc
 50
90.0
 51
180.0
  0
LINE
  5
484
100
AcDbEntity
  8
0
  6
HIDDEN2
 62
     7
100
AcDbLine
 10
8.9791366
 20
10.37726493
 30
0.0
 11
9.9791366
 21
10.37726493
 31
0.0
  0
LINE
  5
485
100
AcDbEntity
  8
0
  6
HIDDEN2
 62
     7
100
AcDbLine
 10
9.9791366
 20
10.12726493
 30
0.0
 11
9.9791366
 21
10.37726493
 31
0.0
  0
LINE
  5
486
100
AcDbEntity
  8
0
  6
HIDDEN2
 62
     7
100
AcDbLine
 10
8.9791366
 20
10.12726493
 30
0.0
 11
8.9791366
 21
10.37726493
 31
0.0
  0
LINE
  5
487
100
AcDbEntity
  8
0
  6
HIDDEN2
 62
     7
100
AcDbLine
 10
8.9791366
 20
10.12726493
 30
0.0
 11
9.9791366
 21
10.12726493
 31
0.0
  0
LINE
  5
488
100
AcDbEntity
  8
0
  6
HIDDEN2
 62
     7
100
AcDbLine
 10
9.8541366
 20
9.70698501
 30
0.0
 11
9.8541366
 21
10.12726493
 31
0.0
  0
LINE
  5
489
100
AcDbEntity
  8
0
  6
HIDDEN2
 62
     7
100
AcDbLine
 10
9.1041366
 20
9.70698501
 30
0.0
 11
9.1041366
 21
10.12726493
 31
0.0
  0
LINE
  5
48A
100
AcDbEntity
  8
0
  6
HIDDEN2
 62
     7
100
AcDbLine
 10
17.35666271
 20
6.48798501
 30
0.0
 11
17.35666271
 21
10.98798501
 31
0.0
  0
LINE
  5
48B
100
AcDbEntity
  8
0
  6
HIDDEN2
 62
     7
100
AcDbLine
 10
17.35666271
 20
10.98798501
 30
0.0
 11
16.73166271
 21
10.98798501
 31
0.0
  0
LINE
  5
48C
100
AcDbEntity
  8
0
  6
HIDDEN2
 62
     7
100
AcDbLine
 10
17.35666271
 20
6.48798501
 30
0.0
 11
16.73166271
 21
6.48798501
 31
0.0
  0
LINE
  5
48D
100
AcDbEntity
  8
0
  6
HIDDEN2
 62
     7
100
AcDbLine
 10
17.35666271
 20
9.23798501
 30
0.0
 11
16.85666271
 21
9.23798501
 31
0.0
  0
LINE
  5
48E
100
AcDbEntity
  8
0
  6
HIDDEN2
 62
     7
100
AcDbLine
 10
17.35666271
 20
8.23798501
 30
0.0
 11
16.85666271
 21
8.23798501
 31
0.0
  0
LINE
  5
48F
100
AcDbEntity
  8
0
  6
HIDDEN2
 62
     7
100
AcDbLine
 10
16.85666271
 20
8.23798501
 30
0.0
 11
16.85666271
 21
9.23798501
 31
0.0
  0
LINE
  5
490
100
AcDbEntity
  8
0
  6
BYBLOCK
 62
     7
100
AcDbLine
 10
17.97421696
 20
-15.72950094
 30
0.0
 11
22.89370414
 21
-15.72950094
 31
0.0
  0
LINE
  5
491
100
AcDbEntity
  8
0
  6
BYBLOCK
 62
     7
100
AcDbLine
 10
17.97421696
 20
-8.10450094
 30
0.0
 11
22.89370414
 21
-8.10450094
 31
0.0
  0
LINE
  5
492
100
AcDbEntity
  8
0
  6
BYBLOCK
 62
     7
100
AcDbLine
 10
22.62370414
 20
-15.45950094
 30
0.0
 11
22.62370414
 21
-11.63550538
 31
0.0
  0
LINE
  5
493
100
AcDbEntity
  8
0
  6
BYBLOCK
 62
     7
100
AcDbLine
 10
22.62370414
 20
-8.37450094
 30
0.0
 11
22.62370414
 21
-11.09550538
 31
0.0
  0
SOLID
  5
494
100
AcDbEntity
  8
0
  6
BYBLOCK
 62
     7
100
AcDbTrace
 10
22.57870414
 20
-15.45950094
 30
0.0
 11
22.66870414
 21
-15.45950094
 31
0.0
 12
22.62370414
 22
-15.72950094
 32
0.0
 13
22.62370414
 23
-15.72950094
 33
0.0
  0
SOLID
  5
495
100
AcDbEntity
  8
0
  6
BYBLOCK
 62
     7
100
AcDbTrace
 10
22.57870414
 20
-8.37450094
 30
0.0
 11
22.66870414
 21
-8.37450094
 31
0.0
 12
22.62370414
 22
-8.10450094
 32
0.0
 13
22.62370414
 23
-8.10450094
 33
0.0
  0
TEXT
  5
496
100
AcDbEntity
  8
0
  6
BYBLOCK
 62
     7
100
AcDbText
 10
22.48227557
 20
-11.50050538
 30
0.0
 40
0.27
  1
R
  7
ROMANS
 72
     4
 11
22.62370414
 21
-11.36550538
 31
0.0
100
AcDbText
  0
POINT
  5
497
100
AcDbEntity
  8
0
  6
BYBLOCK
 62
     7
100
AcDbPoint
 10
17.88046696
 20
-15.72950094
 30
0.0
  0
POINT
  5
498
100
AcDbEntity
  8
0
  6
BYBLOCK
 62
     7
100
AcDbPoint
 10
17.88046696
 20
-8.10450094
 30
0.0
  0
POINT
  5
499
100
AcDbEntity
  8
0
  6
BYBLOCK
 62
     7
100
AcDbPoint
 10
22.62370414
 20
-8.10450094
 30
0.0
  0
LINE
  5
49A
100
AcDbEntity
  8
0
  6
BYBLOCK
 62
     7
100
AcDbLine
 10
17.20370026
 20
-14.91700094
 30
0.0
 11
21.31283882
 21
-14.91700094
 31
0.0
  0
LINE
  5
49B
100
AcDbEntity
  8
0
  6
BYBLOCK
 62
     7
100
AcDbLine
 10
17.20370026
 20
-8.91700094
 30
0.0
 11
21.31283882
 21
-8.91700094
 31
0.0
  0
LINE
  5
49C
100
AcDbEntity
  8
0
  6
BYBLOCK
 62
     7
100
AcDbLine
 10
21.04283882
 20
-14.64700094
 30
0.0
 11
21.04283882
 21
-12.66336086
 31
0.0
  0
LINE
  5
49D
100
AcDbEntity
  8
0
  6
BYBLOCK
 62
     7
100
AcDbLine
 10
21.04283882
 20
-9.18700094
 30
0.0
 11
21.04283882
 21
-12.12336086
 31
0.0
  0
SOLID
  5
49E
100
AcDbEntity
  8
0
  6
BYBLOCK
 62
     7
100
AcDbTrace
 10
20.99783882
 20
-14.64700094
 30
0.0
 11
21.08783882
 21
-14.64700094
 31
0.0
 12
21.04283882
 22
-14.91700094
 32
0.0
 13
21.04283882
 23
-14.91700094
 33
0.0
  0
SOLID
  5
49F
100
AcDbEntity
  8
0
  6
BYBLOCK
 62
     7
100
AcDbTrace
 10
20.99783882
 20
-9.18700094
 30
0.0
 11
21.08783882
 21
-9.18700094
 31
0.0
 12
21.04283882
 22
-8.91700094
 32
0.0
 13
21.04283882
 23
-8.91700094
 33
0.0
  0
TEXT
  5
4A0
100
AcDbEntity
  8
0
  6
BYBLOCK
 62
     7
100
AcDbText
 10
20.90141025
 20
-12.52836086
 30
0.0
 40
0.27
  1
P
  7
ROMANS
 72
     4
 11
21.04283882
 21
-12.39336086
 31
0.0
100
AcDbText
  0
POINT
  5
4A1
100
AcDbEntity
  8
0
  6
BYBLOCK
 62
     7
100
AcDbPoint
 10
21.04283882
 20
-8.91700094
 30
0.0
  0
LINE
  5
4A2
100
AcDbEntity
  8
0
  6
BYBLOCK
 62
     7
100
AcDbLine
 10
-3.12487178
 20
-14.79314001
 30
0.0
 11
0.79352256
 21
-14.79314001
 31
0.0
  0
LINE
  5
4A3
100
AcDbEntity
  8
0
  6
BYBLOCK
 62
     7
100
AcDbLine
 10
-3.12487178
 20
-7.79314001
 30
0.0
 11
0.79352256
 21
-7.79314001
 31
0.0
  0
LINE
  5
4A4
100
AcDbEntity
  8
0
  6
BYBLOCK
 62
     7
100
AcDbLine
 10
0.52352256
 20
-14.52314001
 30
0.0
 11
0.52352256
 21
-10.92148169
 31
0.0
  0
LINE
  5
4A5
100
AcDbEntity
  8
0
  6
BYBLOCK
 62
     7
100
AcDbLine
 10
0.52352256
 20
-8.06314001
 30
0.0
 11
0.52352256
 21
-10.38148169
 31
0.0
  0
SOLID
  5
4A6
100
AcDbEntity
  8
0
  6
BYBLOCK
 62
     7
100
AcDbTrace
 10
0.47852256
 20
-14.52314001
 30
0.0
 11
0.56852256
 21
-14.52314001
 31
0.0
 12
0.52352256
 22
-14.79314001
 32
0.0
 13
0.52352256
 23
-14.79314001
 33
0.0
  0
SOLID
  5
4A7
100
AcDbEntity
  8
0
  6
BYBLOCK
 62
     7
100
AcDbTrace
 10
0.47852256
 20
-8.06314001
 30
0.0
 11
0.56852256
 21
-8.06314001
 31
0.0
 12
0.52352256
 22
-7.79314001
 32
0.0
 13
0.52352256
 23
-7.79314001
 33
0.0
  0
TEXT
  5
4A8
100
AcDbEntity
  8
0
  6
BYBLOCK
 62
     7
100
AcDbText
 10
0.43352256
 20
-10.78648169
 30
0.0
 40
0.27
  1
J
  7
ROMANS
 72
     4
 11
0.52352256
 21
-10.65148169
 31
0.0
100
AcDbText
  0
POINT
  5
4A9
100
AcDbEntity
  8
0
  6
BYBLOCK
 62
     7
100
AcDbPoint
 10
-3.21862178
 20
-14.79314001
 30
0.0
  0
POINT
  5
4AA
100
AcDbEntity
  8
0
  6
BYBLOCK
 62
     7
100
AcDbPoint
 10
-3.21862178
 20
-7.79314001
 30
0.0
  0
POINT
  5
4AB
100
AcDbEntity
  8
0
  6
BYBLOCK
 62
     7
100
AcDbPoint
 10
0.52352256
 20
-7.79314001
 30
0.0
  0
LINE
  5
4AC
100
AcDbEntity
  8
0
  6
BYBLOCK
 62
     7
100
AcDbLine
 10
-3.66837178
 20
-14.26214001
 30
0.0
 11
-0.60250774
 21
-14.26214001
 31
0.0
  0
LINE
  5
4AD
100
AcDbEntity
  8
0
  6
BYBLOCK
 62
     7
100
AcDbLine
 10
-3.66837178
 20
-8.32414001
 30
0.0
 11
-0.60250774
 21
-8.32414001
 31
0.0
  0
LINE
  5
4AE
100
AcDbEntity
  8
0
  6
BYBLOCK
 62
     7
100
AcDbLine
 10
-0.87250774
 20
-13.99214001
 30
0.0
 11
-0.87250774
 21
-12.16873322
 31
0.0
  0
LINE
  5
4AF
100
AcDbEntity
  8
0
  6
BYBLOCK
 62
     7
100
AcDbLine
 10
-0.87250774
 20
-8.59414001
 30
0.0
 11
-0.87250774
 21
-11.62873322
 31
0.0
  0
SOLID
  5
4B0
100
AcDbEntity
  8
0
  6
BYBLOCK
 62
     7
100
AcDbTrace
 10
-0.91750774
 20
-13.99214001
 30
0.0
 11
-0.82750774
 21
-13.99214001
 31
0.0
 12
-0.87250774
 22
-14.26214001
 32
0.0
 13
-0.87250774
 23
-14.26214001
 33
0.0
  0
SOLID
  5
4B1
100
AcDbEntity
  8
0
  6
BYBLOCK
 62
     7
100
AcDbTrace
 10
-0.91750774
 20
-8.59414001
 30
0.0
 11
-0.82750774
 21
-8.59414001
 31
0.0
 12
-0.87250774
 22
-8.32414001
 32
0.0
 13
-0.87250774
 23
-8.32414001
 33
0.0
  0
TEXT
  5
4B2
100
AcDbEntity
  8
0
  6
BYBLOCK
 62
     7
100
AcDbText
 10
-1.01393631
 20
-12.03373322
 30
0.0
 40
0.27
  1
H
  7
ROMANS
 72
     4
 11
-0.87250774
 21
-11.89873322
 31
0.0
100
AcDbText
  0
POINT
  5
4B3
100
AcDbEntity
  8
0
  6
BYBLOCK
 62
     7
100
AcDbPoint
 10
-0.87250774
 20
-8.32414001
 30
0.0
  0
SOLID
  5
4B4
100
AcDbEntity
  8
0
 62
     7
100
AcDbTrace
 10
-7.89643425
 20
10.40969016
 30
0.0
 11
-7.92164227
 21
10.49608782
 31
0.0
 12
-8.16823124
 22
10.37726493
 32
0.0
 13
-8.16823124
 23
10.37726493
 33
0.0
  0
LINE
  5
4B5
100
AcDbEntity
  8
0
 62
     7
100
AcDbLine
 10
-7.90903826
 20
10.45288899
 30
0.0
 11
-1.43903457
 21
12.3406251
 31
0.0
  0
LINE
  5
4B6
100
AcDbEntity
  8
0
 62
     7
100
AcDbLine
 10
-1.43903457
 20
12.3406251
 30
0.0
 11
-1.07387272
 21
12.3406251
 31
0.0
  0
SOLID
  5
4B7
100
AcDbEntity
  8
0
 62
     7
100
AcDbTrace
 10
-8.36628628
 20
18.11455328
 30
0.0
 11
-8.44137251
 21
18.06493416
 31
0.0
 12
-8.25497203
 22
17.86448501
 32
0.0
 13
-8.25497203
 23
17.86448501
 33
0.0
  0
LINE
  5
4B8
100
AcDbEntity
  8
0
 62
     7
100
AcDbLine
 10
-8.40382939
 20
18.08974372
 30
0.0
 11
-9.14849007
 21
19.18015773
 31
0.0
  0
LINE
  5
4B9
100
AcDbEntity
  8
0
 62
     7
100
AcDbLine
 10
-9.14849007
 20
19.18015773
 30
0.0
 11
-9.67594608
 21
19.18015773
 31
0.0
  0
TEXT
  5
4BF
100
AcDbEntity
  8
0
 62
     7
100
AcDbText
 10
-12.43857367
 20
19.06773717
 30
0.0
 40
0.26
  1
1 1/4" FNPT
  7
ROMANS
100
AcDbText
  0
TEXT
  5
4C0
100
AcDbEntity
  8
0
 62
     7
100
AcDbText
 10
-13.94303619
 20
-1.0497702
 30
0.0
 40
0.26
  1
1 1/2" FNPT
  7
ROMANS
100
AcDbText
  0
TEXT
  5
4C1
100
AcDbEntity
  8
0
 62
     7
100
AcDbText
 10
10.63438977
 20
-17.01883396
 30
0.0
 40
0.26
  1
BASE FOR ALUMINUM &
  7
ROMANS
100
AcDbText
  0
TEXT
  5
4C2
100
AcDbEntity
  8
0
 62
     7
100
AcDbText
 10
10.99955162
 20
-17.45216729
 30
0.0
 40
0.26
  1
CAST IRON MODELS
  7
ROMANS
100
AcDbText
  0
TEXT
  5
4C3
100
AcDbEntity
  8
0
 62
     7
100
AcDbText
 10
-12.42695017
 20
-16.83646642
 30
0.0
 40
0.26
  1
FOOTED BASE FOR STAINLESS STEEL &
  7
ROMANS
100
AcDbText
  0
TEXT
  5
4C4
100
AcDbEntity
  8
0
 62
     7
100
AcDbText
 10
-10.52149653
 20
-17.26979975
 30
0.0
 40
0.26
  1
HASTELLOY MODELS
  7
ROMANS
100
AcDbText
  0
LINE
  5
4C5
100
AcDbEntity
  8
0
  6
CONTINUOUS
 62
     7
100
AcDbLine
 10
13.99745026
 20
-13.79200094
 30
0.0
 11
13.99745026
 21
-11.90418053
 31
0.0
  0
LINE
  5
4C6
100
AcDbEntity
  8
0
  6
CONTINUOUS
 62
     7
100
AcDbLine
 10
11.24745026
 20
-13.79200094
 30
0.0
 11
13.99745026
 21
-13.79200094
 31
0.0
  0
LINE
  5
4C7
100
AcDbEntity
  8
0
  6
CONTINUOUS
 62
     7
100
AcDbLine
 10
11.24745026
 20
-13.79200094
 30
0.0
 11
11.24745026
 21
-11.90418053
 31
0.0
  0
SOLID
  5
4C8
100
AcDbEntity
  8
0
 62
     7
100
AcDbTrace
 10
17.53844141
 20
9.15991284
 30
0.0
 11
17.46224265
 21
9.20780594
 31
0.0
 12
17.35666271
 22
8.95526312
 32
0.0
 13
17.35666271
 23
8.95526312
 33
0.0
  0
LINE
  5
4C9
100
AcDbEntity
  8
0
 62
     7
100
AcDbLine
 10
17.50034203
 20
9.18385939
 30
0.0
 11
19.8234892
 21
12.88002659
 31
0.0
  0
LINE
  5
4CA
100
AcDbEntity
  8
0
 62
     7
100
AcDbLine
 10
19.8234892
 20
12.88002659
 30
0.0
 11
20.19859664
 21
12.88002659
 31
0.0
  0
TEXT
  5
4CB
100
AcDbEntity
  8
0
 62
     7
100
AcDbText
 10
20.29825113
 20
12.704428
 30
0.0
 40
0.27
  1
3/4" FNPT
  7
ROMANS
 72
     4
 11
21.4296797
 21
12.82014229
 31
0.0
100
AcDbText
  0
TEXT
  5
4CC
100
AcDbEntity
  8
0
 62
     7
100
AcDbText
 10
20.31235873
 20
12.28045035
 30
0.0
 40
0.26
  1
EXHAUST
  7
ROMANS
100
AcDbText
  0
TEXT
  5
4CD
100
AcDbEntity
  8
0
 62
     7
100
AcDbText
 10
-0.92664808
 20
12.18997403
 30
0.0
 40
0.26
  1
3/8" FNPT
  7
ROMANS
100
AcDbText
  0
TEXT
  5
4CE
100
AcDbEntity
  8
0
 62
     7
100
AcDbText
 10
-0.87308443
 20
11.7566407
 30
0.0
 40
0.26
  1
AIR INLET
  7
ROMANS
100
AcDbText
  0
ENDSEC
  0
SECTION
  2
OBJECTS
  0
DICTIONARY
  5
C
100
AcDbDictionary
  3
ACAD_GROUP
350
D
  3
ACAD_MLINESTYLE
350
E
  0
DICTIONARY
  5
D
102
{ACAD_REACTORS
330
C
102
}
100
AcDbDictionary
  0
DICTIONARY
  5
E
102
{ACAD_REACTORS
330
C
102
}
100
AcDbDictionary
  3
STANDARD
350
1B
  0
MLINESTYLE
  5
1B
102
{ACAD_REACTORS
330
E
102
}
100
AcDbMlineStyle
  2
STANDARD
 70
     0
  3

 62
     0
 51
90.0
 52
90.0
 71
     2
 49
0.5
 62
   256
  6
BYLAYER
 49
-0.5
 62
   256
  6
BYLAYER
  0
ENDSEC
  0
EOF
